Janes Addiction

Everybodys Friend

Janes Addiction

tabs

save to print version add songbook text version e-mail correct tuner
chordsukulelecavacokeyboardtabbassdrumsharmonicaflute Guitar Pro
close

there isn't a video lesson for this song

chords

Everybodys Friend

	  		Transcribed by: 
Email: [email protected] 
 
     
 
E-mail me for any corrections or whatever, and make commecnts and rate me please! 
 
 
 
 A    Am   Em   G 
 
e-|--0----0----0----3----------------|-------------------------------------|- 
B-|--2----1----0----3----------------|-------------------------------------|- 
G-|--2----2----0----0----------------|-------------------------------------|- 
D-|--2----2----2----0----------------|-------------------------------------|- 
A-|--0----0----2----2----------------|-------------------------------------|- 
E-|-----------------3----------------|-------------------------------------|- 
 
 
It goes... A Am Em Am Em   G 
 
 
 
 
 
A      Am            Em  Am       Em     G 
Hey Man Where did you go Thought I but I guess... 
 
 
     A             Am         Em  Am             Em       G 
I dont know you I gave it my heart you looked to take it apart... 
 
 
 
     Solo 1 
 
e-|------------------------------|----------7^--(7)--5-----------------|- 
B-|-7^---8-7-5-------------------|--7^--10^------------8-(8)-----------|- 
G-|-------------7--5-------------|-------------------------------------|- 
D-|------------------------------|-------------------------------------|- 
A-|------------------------------|-------------------------------------|- 
E-|------------------------------|-------------------------------------|- 
 
 
e-|------------------------------|-------------------------------------|- 
B-|-(8)--------------------------|-------------------------------------|- 
G-|------------------------------|-------------------------------------|- 
D-|--7---7^--5----10/9----9/7---7/5---5/7/5----------------------------|- 
A-|------------------------------|-------------------------------------|- 
E-|------------------------------|-------------------------------------|- 
 
 
 
   Solo  2 
e-|------------------------------|-------------------------------------|- 
B-|----7^---------5--7--7^-------|--7---10^---7^--5--3--(3^)-----------|- 
G-|--------5--7------------------|-------------------------------------|- 
D-|------------------------------|-------------------------------------|- 
A-|------------------------------|-------------------------------------|- 
E-|------------------------------|-------------------------------------|- 
 
 
 
  Interlude ( Its not 100% for timing when i say x14, but its around there, mess 
              around with it, you will get it, its simple) 
 
 
    x14   x5  x8   x14   x12      x14    x14     x18   x8      x18 x8 
e-|--0-----0---0-----0------0-------0----0--------0----0--------0---0-|- 
B-|--5-----3--/8----/5-----/7^------5---/7^-----/10----8------/10---8-|- 
G-|-------------------------------------------------------------------|- 
D-|-------------------------------------------------------------------|- 
A-|-------------------------------------------------------------------|- 
E-|-------------------------------------------------------------------|- 
 
 
 
 
 
 Guitar Solo 
 
e-|---0---0----------------------|-------------------------------------|- 
B-|---7---5----------------------|-------------------------------------|- 
G-|------------------------------|---5--7--9/4----5--7/9---------------|- 
D-|------------9^-(9)/7--9^------|------------------------7/9--9/7--9--|- 
A-|------------------------------|-------------------------------------|- 
E-|------------------------------|-------------------------------------|- 
 
 
e-|--------------------------5---|--7^--5--8^--------------------------|- 
B-|------------8^----8-----------|-------------8^----------------------|- 
G-|--------7^-----------7^-------|-----------------9^--7^--5--7^-(7)---|- 
D-|--7/5-------------------------|-------------------------------------|- 
A-|------------------------------|-------------------------------------|- 
E-|------------------------------|-------------------------------------|- 
 
 
 
e-|------------------------------|-------------------------------------|- 
B-|------------------------------|-------------------------------------|- 
G-|-4^-(4)----------------------------|-------------------------------------|- 
D-|------------------------------|-------------------------------------|- 
A-|------------------------------|-------------------------------------|- 
E-|------------------------------|-------------------------------------|- 
 
 
 
   Outro thing is... 
 
 
e-|------------------------------|-------------------------------------|- 
B-|------------------------------|-------------------------------------|- 
G-|---11^--(11)---12---11--------|-------------------------------------|- 
D-|---12^--(12)---10---9---9/7---|-------------------------------------|- 
A-|------------------------------|-------------------------------------|- 
E-|------------------------------|-------------------------------------|- 
 

		  

Full key step upFull key step up
Half key step upHalf key step up
Half key step downHalf key step down
Full key step downFull key step down
hide glossary

See also:

tabs Iron Maiden - Wasting Love (ver. 2) tabs Ozzy Osbourne - Paranoid (live) tabs Iron Maiden - Children of the Damned tabs Iron Maiden - Can I Play with Madness tabs Iron Maiden - Wasting love (solo) tabs Black Sabbath - Iron Man (Intro e Riff)
e-chords

Other versions:

tabs Janes Addiction - Everybodys Friend
auto scroll beats size up size down change color hide chords drawings
tab show chords e-chords YouTube Clip e-chords hide all tabs e-chords go to top tab

share