Jamiroquai

home > Jamiroquai

World That He Wants Tab

Jamiroquai

Difficulty: nolevelnolevel

by VsWorld

tuner correct add songbook print version text version save to e-mail
chordsukulelecavacokeyboardtabbassdrumsharmonicsflute Guitar Pro
chords

World That He Wants

  		  








e|------- ------- ------- -------|1------ ------- 3------ -------|  
B|5---------------5--------------|1---------------1--------------| 
G|5---------------5--------------|1-------1-------1-------1------| 
D|6-------6-------6-------6------|3---------------3--------------| 
A|7---------------7--------------|-------------------------------| 
E|-------------------------------|-------------------------------| 
 
  Why                             does  




e|3------ ------- 3------ -------|1------ ------- 1------ -------|  
B|1-------1-------1-------1------|3---------------3--------------| 
G|0---------------0--------------|1---------------1--------------| 
D|2---------------2--------------|-------------------------------| 
A|3---------------3--------------|3-------3-------3-------3------| 
E|-------------------------------|-------------------------------| 
 
  this                    man                             Defy  




e|4------ ------- 4------ -------|3------ ------- 3------ -------|  
B|2---------------2--------------|2---------------2--------------| 
G|3-------3-------3-------3------|3-------3-------3-------3------| 
D|-------------------------------|-------------------------------| 
A|1---------------1--------------|1---------------1--------------| 
E|-------------------------------|-------------------------------| 
 
                          the storm                      and  




e|8------ ------- 8------ -------|6------ ------- 6------ -------| 
B|6---------------6--------------|6---------------6--------------|     
G|8-------8-------6--------------|6-------6-------6-------6------| 
D|8---------------8--------------|4---------------4--------------| 
A|-------------------------------|-------------------------------| 
E|6---------------6--------------|-------------------------------| 
  burn                    us  all  




e|------- ------- ------- -------|1------ ------- 3------ -------|  
B|5---------------5--------------|1---------------1--------------| 
G|5---------------5--------------|1-------1-------1-------1------| 
D|6-------6-------6-------6------|3---------------3--------------| 
A|7---------------7--------------|-------------------------------| 
E|-------------------------------|-------------------------------| 
 
  Each                        time                            his  




e|3------ ------- 3------ -------|1------ ------- 1------ -------|  
B|1-------1-------1--------------|3---------------3--------------| 
G|0---------------0--------------|1---------------1--------------| 
D|2---------------2--------------|-------------------------------| 
A|3---------------3--------------|3-------3-------3-------3------| 
E|-------------------------------|-------------------------------| 
 
  hand                    waves                               The  



e|4------ ------- 4------ -------|3------ ------- 3------ -------|  
B|2---------------2--------------|2---------------2--------------| 
G|3-------3-------3-------3------|3---------------3--------------| 
D|-------------------------------|-------------------------------| 
A|1---------------1--------------|1---------------1--------------| 
E|-------------------------------|-------------------------------| 
 
  sun                         it  sets    on      lonely     graves  




e|8------ ------- 8------ -------|6------ ------- 6------ -------|  
B|6---------------6--------------|6---------------6--------------| 
G|8-------8-------8--------------|6-------6-------6-------6------| 
D|8---------------8--------------|4---------------4--------------| 
A|-------------------------------|-------------------------------| 
E|6---------------6--------------|-------------------------------| 
 




                                    
e|0------ ------- 0------ -------|0------ ------- 0------ -------|  
B|1---------------1--------------|1---------------1--------------| 
G|0---------------0--------------|0---------------0--------------| 
D|2---------------2--------------|2---------------2--------------| 
A|3---------------3--------------|3---------------3--------------| 
E|-------------------------------|-------------------------------| 
 
  Haven't we read         this    page    before  




e|2------ ------- 2------ -------|2------ ------- 2------ -------|  
B|4---------------4--------------|4---------------4--------------| 
G|3---------------3--------------|3---------------3--------------| 
D|4-------4-------4-------4------|4-------4-------4--------------| 
A|-------------------------------|-------------------------------| 
E|-------------------------------|-------------------------------| 
 
  We're gonna lose        the war  



                             
e|4------ ------- 4------ -------|4------ ------- 4------ -------|  
B|4---------------4--------------|4---------------4--------------| 
G|4---------------4--------------|4---------------4--------------| 
D|6---------------6--------------|6---------------6--------------| 
A|7---------------7--------------|7-----------7------------------| 
E|-------------------------------|-------------------------------| 
 
  Put down the glory          flag  




e|4------ ------- 4------ -------|4------ ------- 4---4-- -------| 
B|3---------------3--------------|3---------------3---4----------| 
G|1---------------1--------------|1---------------1---1----------| 
D|3---------------3-----------3--|3-------3-------3---3----------| 
A|1---------------1--------------|1---------------1--------------| 
E|-------------------------------|-------------------------------| 
 
  Nothing    will be      the same  




e|2------ ------- 2------ -------|2------ ------- 2------ -------|  
B|4---------------4--------------|4---------------4--------------| 
G|3---------------3--------------|3---------------3--------------| 
D|4---------------4--------------|4---------------4-------4------| 
A|-------------------------------|-------------------------------| 
E|-------------------------------|-------------------------------| 
 
  This is the world       he  wants  




e|4------ ------- 4------ -------|4------ ------- 4------ -------|  
B|4---------------4--------------|4---------------4--------------| 
G|4---------------4-----------4--|4-------4-------4--------------| 
D|6-------6-------6--------------|6-----------6---6-------6------| 
A|7---------------7--------------|7---------------7-----------7--| 
E|-------------------------------|-------------------------------| 
 
  Pray for the brave  and the young                           It  




e|1------ ------- 1------ -------|1------ ------- 1------ -------| 
B|3---------------3--------------|3---------------4--------------| 
G|1---------------1--------------|1---------------1--------------| 
D|3---------------3-------3------|3-------3-------3-------3------| 
A|1---------------1--------------|1---------------1--------------| 
E|-------------------------------|-------------------------------|   
  won't bring  
          them back   again  


e|------- ------- ------- -------|1------ ------- 3------ -------|  
B|5---------------5--------------|1---------------1--------------| 
G|5---------------5--------------|1---------------1--------------| 
D|6---------------6--------------|3---------------3--------------| 
A|7---------------7--------------|--------3----------------------| 
E|------------------------8------|------------------------3------| 
 
  Stillness                                       you know   
                                                       that it reigns 



e|------- ------- ------- -------|4------ ------- 4------ -------|  
B|8---------------8--------------|5---------------5--------------| 
G|9---------------9--------------|3---------------3--------------| 
D|8---------------8--------------|--------5---------------5------| 
A10------10--------------10------|3------------------------------| 
E|8------------------------------|-------------------------------| 
 
                          supreme                             And  




e|8------ ------- 8------ -------|6------ ------- 6------ -------|  
B|6---------------6--------------|6---------------6--------------| 
G|8---------------8--------------|6---------------6--------------| 
D|-------------------------------|-------------------------------| 
A|--------8---------------8------|--------8---------------8------| 
E|6------------------------------|6------------------------------| 
 
  suffocates                                  our only    dream  



e|8------ ------- 8------ -------|6------ ------- ------- -------|    
B|6---------------6--------------|6---------------6--------------| 
G|6---------------6--------------|6---------------6--------------| 
D|4---------------4--------------|4---------------4--------------| 
A|--------4---------------4------|--------4---------------4------| 
E|-------------------------------|-------------------------------|          





e|------- ------- ------- -------|1------ ------- 3------ -------|  
B|5---------------5--------------|1---------------1--------------| 
G|5---------------5--------------|1-------1-------1--------------| 
D|6---------------6--------------|3---------------3--------------| 
A|7---------------7--------------|-------------------------------| 
E|-------------------------------|------------------------3------| 
 
  No                      birds                               sing  



e|------- ------- ------- -------|------- ------- ------- -------|  
B|8---------------8--------------|9--------------11--------------| 
G|9---------------9--------------|9---------------9--------------| 
D10--------------10--------------10--------------10--------------| 
A|-------10--------------10------|-----------------------10------| 
E|8------------------------------|8---------------8--------------| 
 
                          here                            They've  



e|8------ ------- 8------ -------|6------ ------- 6------ -------|  
B|6---------------6--------------|6---------------6--------------| 
G|8---------------8--------------|6---------------6--------------| 
D|8---------------8--------------|8---------------8--------------| 
A|--------8---------------8------|--------8---------------8------| 
E|6------------------------------|6------------------------------| 
 
  flown                   away                                They  



e|8------ ------- 8------ -------|6------ ------- ------- -------| 
B|6---------------6--------------|6---------------6--------------| 
G|6---------------6--------------|6---------------6--------------| 
D|4---------------4--------------|4---------------4--------------| 
A|--------4---------------4------|--------4---------------4------| 
E|-------------------------------|-------------------------------|           
  didn't   
    even say 



e|0------ ------- 0------ -------|0------ ------- 1------ -------|  
B|1---------------1--------------|1---------------3--------------| 
G|0---------------0--------------|0---------------1--------------| 
D|2---------------2--------------|2---------------3--------------| 
A|3---------------3--------------|3---------------3--------------| 
E|-------------------------------|-------------------------------| 
 
  When they'd           again 
          be back    


 
e|3------ ------- 3------ -------|3------ ------- 4------ -------|  
B|1---------------1--------------|1---------------6--------------| 
G|3---------------3--------------|3---------------5--------------| 
D|-------------------------------|-------------------------------| 
A|3------------------------------|-------------------------------| 
E|-------------------------------|-------------------------------| 
 




                                              
e|6------ ------- 6------ -------|6------ ------- 8------ -------|  
B|8---------------8--------------|8--------------11--------------| 
G|9---------------9--------------|9---------------9--------------| 
D|-------------------------------|-------------------------------| 
A|-------------------------------|-------------------------------| 
E|8------------------------------|-------------------------------| 
 
  T 
  Will they  
          come back       again  


e|12----- ------- 12----- -------|12----- ------- 12----- -------|  
B|13--------------13-------------|13--------------13-------------| 
G|12--------------12-------------|12--------------12-------------| 
D|10-----------------------------|-------------------------------| 
A|-------------------------------|-------------------------------| 
E|-------------------------------|-------------------------------| 
 





e|2------ ------- 2------ -------|2------ ------- 2------ -------| 
B|4---------------4--------------|4---------------4--------------| 
G|3---------------3--------------|3---------------3--------------| 
D|4---------------4--------------|4-------4-------4--------------| 
A|-------------------------------|-------------------------------| 
E|-------------------------------|-------------------------------| 
 
  Unleash the hounds      of hell  



  
e|4------ ------- 4------ -------|4------ ------- 4------ -------|  
B|4---------------4--------------|4---------------4--------------| 
G|4---------------4--------------|4---------------4--------------| 
D|6---------------6--------------|6-------6-------6--------------| 
A|7---------------7--------------|7---------------7--------------| 
E|-------------------------------|-------------------------------| 
 
  Whip up the fury        wind  




e|1------ ------- 1------ -------|1------ ------- 1------ -------| 
B|3---------------3--------------|3---------------4--------------| 
G|1---------------1--------------|1---------------1--------------| 
D|3---------------3-------3------|3---3---3---3---3---3---3---3--| 
A|1---------------1--------------|1---------------1--------------| 
E|-------------------------------|-------------------------------|      
  Hidden  inside      his     dome  




e|2------ ------- 2------ -------|2------ ------- 2------ -------|  
B|4---------------4--------------|4---------------4--------------| 
G|3---------------3--------------|3---------------3--------------| 
D|4---------------4--------------|4-------4-------4-------4------| 
A|-------------------------------|-------------------------------| 
E|-------------------------------|-------------------------------| 
 
  This is the world       he wants   




e|4------ ------- 4------ -------|4------ 4------ 4------ -------|  
B|4---------------4--------------|4-------4-------4--------------| 
G|4---------------4--------------|4-------4-------4--------------| 
D|6---------------6--------------|6-------6-------6--------------| 
A|7---------------7--------------|7---------------7--------------| 
E|-------------------------------|-------------------------------| 
 
  Pray for the brave  and the young  




e|1------ ------- 1------ -------|----1-- ------- 1------ -------|  
B|3---------------3--------------|----3-----------4--------------| 
G|1---------------1--------------|----1-----------1-----------1--| 
D|3-------3-------3-------3------|----3-----------3--------------| 
A|1---------------1--------------|1---------------1--------------| 
E|-------------------------------|-------------------------------| 
 
  He knows they're not coming home                    Now do  you   



                             
e|2------ ------- 2------ -------|6------ ------- 6------ -------|  
B|4---------------4--------------|7---------------7--------------| 
G|3---------------3--------------|8---------------8--------------| 
D|4-----------4---4-------4---4--|8---------------8--------------| 
A|-------------------------------|6-----------6-----------6------| 
E|-------------------------------|-------------------------------| 
 
  ever,                                           ever  
                                                   get the    feeling 


                      
e|4------ ------- 4------ -------11------ -------11------ -------| 
B|4---------------4--------------|9---------------9--------------| 
G|4---------------4--------------|9---------------9--------------| 
D|6---------------6-------6------|-------------------------------| 
A|7---------------7-----------7--|-------------------------------| 
E|-------------------------------|0-----------0------------------| 
 
                                                 ever  
                                                   get the    feeling 



e|1------ ------- 1------ -------|1------ ------- ----1-- -------| 
B|3---------------3--------------|4-------------------3----------| 
G|1---------------1--------------|1-------------------1----------| 
D|3---------------3-------3------|3-------3-----------3----------| 
A|1---------------1--------------|1-------------------1----------| 
E|-------------------------------|-------------------------------| 
 
                                  This is     the world that  he   



                         
e|------- ------- ------- -------|------- ------- 6------ -------|  
B|4---------------4--------------|9---------------7--------------| 
G|3---------------3--------------|8---------------8--------------| 
D|4---------------4--------------|8---------------8--------------| 
A|--------6---------------6------|--------6---------------6------| 
E|-------------------------------|-------------------------------| 
 
  wants                                     D'you ever  
                                                   get the    feeling 
  
                                                 
                           
e|4------ ------- 4------ -------|7------ ------- 11----- -------|  
B|4---------------4--------------|9---------------12-------------| 
G|4---------------4--------------|8---------------13-------------| 
D|6---------------6--------------|-------------------------------| 
A|7---------------7--------------|7------------------------------| 
E|-------------------------------|----------------12-------------| 
 
                                                   T 
                                                   ever  
                                                   get the    feeling 


e|1------ ------- 1------ -------|1------ ------- ----1-- -------|  
B|3---------------3--------------|3-------------------3----------| 
G|1-------1-------1-------1------|1-------1---1---1---1---1------| 
D|3---------------3--------------|3-------------------3----------| 
A|1---------------1--------------|1-------------------1----------| 
E|-------------------------------|-------------------------------| 
 
                                  This is     the world that  he  



                                                 
e|------- ------- ------- -------|------- ------- ----6-- -------| 
B|4---------------4--------------|4-------------------9----------| 
G|3---------------3--------------|3-------------------8----------| 
D|4---------------4--------------|4-------------------8----------| 
A|--------6---------------6------|--------6---------------6------| 
E|-------------------------------|-------------------------------| 
 
  wants  


                                               
e|4------ 4------ 4------ 4------|4------ ------- ----7-- -------|  
B|4-------4-------4-------4------|4-------4-----------9----------| 
G|4-------4-------4-------4------|4-----------4-------8----------| 
D|6-------6-------6-------6------|6---------------6--------------| 
A|7------------------------------|7-------------------7----------| 
E|-------------------------------|-------------------------------| 
 
  This is     the world   he  wants 




e|1------ ------- 1------ -------|1------ ------- 1------ -------|  
B|3---------------3--------------|3---------------3--------------| 
G|1---------------1-------1------|1-------1---1---1---1---1------| 
D|3---------------3--------------|3---------------3--------------| 
A|1---------------1--------------|1---------------1--------------| 
E|-------------------------------|-------------------------------| 
 
  This is     the world   he  wants 



e|------- ------- ------- -------|1------ ------- 3------ -------|  
B|5---------------5--------------|1---------------1--------------| 
G|5---------------5--------------|1---------------1--------------| 
D|6---------------6--------------|3---------------3--------------| 
A|7---------------7--------------|--------3---------------3------| 
E|--------8---------------8------|-------------------------------| 
 
   



e|0------ ------- ------- -------|------- ------- ------- -------| 
B|1---------------1-------1------|1-------1-------1--------------| 
G|0---------------3-------1------|0-------0-------0--------------| 
D|2-------2-------2-------2------|2-------3-------2--------------| 
A|3---------------3--------------|------------------------3------| 
E|-------------------------------|-------------------------------|   
  



e|8------ ------- 8------ -------|6------ ------- 4------ -------|  
B|6---------------6--------------|6---------------4--------------| 
G|8---------------8--------------|6---------------5--------------| 
D|8---------------8--------------|8---------------6--------------| 
A|--------8---------------8------|--------8---------------6------| 
E|6------------------------------|6---------------4--------------| 
 
   



  
e|------- ------- ------- -------|1------ ------- 1------ -------|  
B|1---------------1--------------|2---------------2--------------| 
G|3---------------3--------------|3---------------3--------------| 
D|3---------------3--------------|3---------------3--------------| 
A|-------------------------------|-------------------------------| 
E|--------2---------------2------|--------2---------------2------| 
 





e|------- ------- ------- -------|1------ ------- 3------ -------|  
B|5---------------5--------------|1---------------1--------------| 
G|5---------------5--------------|1---------------1--------------| 
D|6---------------6--------------|3---------------3--------------| 
A|7---------------7--------------|--------3---------------3------| 
E|--------8---------------8------|-------------------------------| 
 
   




e|0------ ------- ------- -------|------- ------- ------- -------| 
B|1---------------1-------1------|1-------1-------1--------------| 
G|0---------------3-------1------|0-------0-------0--------------| 
D|2-------2-------2-------2------|2-------3-------2--------------| 
A|3---------------3--------------|------------------------3------| 
E|-------------------------------|-------------------------------|   
  



e|8------ ------- 8------ 8------|6------ ------- 4------ -------| 
B|6---------------6-------6------|6---------------4--------------| 
G|8---------------8-------8------|6---------------5--------------| 
D|-------------------------------|8---------------6--------------| 
A|--------8---------------8------|--------8---------------6------| 
E|6------------------------------|6---------------4--------------| 
 
   


e|1------ ------- ------- -------|1------ ------- ------- -------| 
B|1------------------------------|2------------------------------| 
G|3------------------------------|3------------------------------| 
D|3------------------------------|3------------------------------| 
A|-------------------------------|-------------------------------| 
E|2------------------------------|2------------------------------| 
 



 
	  

Search Paypal
auto scroll beats size up size down change color hide chords drawings
tab show chords e-chords YouTube Clip e-chords hide all tabs e-chords go to top tab