Jackson

All the way

Jackson

tabs

save to print version add songbook text version e-mail correct tuner
chordsukulelecavacokeyboardtabbassdrumsharmonicaflute Guitar Pro
close

there isn't a video lesson for this song

chords

All the way

	  		 
h  = hammer on 
x  = mute 
 
 
***Intro*** 
E|---------------------------------|   
B|---------------------------------| 
G|---------------------------------| 
D|-4-4-4-4---------7-7-7-7-7-7-7-7-| 
A|-4-4-4-4-7-7-7-7-7-7-7-7-7-7-7-7-| 
D|-4-4-4-4-6-6-6-6-7-7-7-7-7-7-7-7-| 
  
E|---------------------------------|   
B|---------------------------------| 
G|---------------------------------| 
D|-4-4-4-4---------7-7-7-7-2-2-2-2-| 
A|-4-4-4-4-7-7-7-7-7-7-7-7-2-2-2-2-| 
D|-4-4-4-4-6-6-6-6-7-7-7-7-2-2-2-2-| 
 
E|---------------------------------------------------------|   
B|---------------------------------------------------------| 
G|---------------------------------------------------------| 
D|-4-4-4-4-2-2-2-2-0-0-0-0-7-7-7-7-2-2-2-2-2-2-2-2-2-2-2-2-| 
A|-4-4-4-4-2-2-2-2-0-0-0-0-7-7-7-7-2-2-2-2-2-2-2-2-2-2-2-2-| 
D|-4-4-4-4-2-2-2-2-0-0-0-0-7-7-7-7-2-2-2-2-2-2-2-2-2-2-2-2-| 
 
***Verse*** 
same as intro 
(begins with volume control) 
except the last  line is 
E|-----------------------------------------------------------------|   
B|-----------------------------------------------------------------| 
G|-----------------------------------------------------------------| 
D|-4-4-4-4-2-2-2-2-0-0-0-0-7-7-7-7-2-2-2-2-2-2-2-2-----------------| 
A|-4-4-4-4-2-2-2-2-0-0-0-0-7-7-7-7-2-2-2-2-2-2-2-2-4-4-4-4-4-4-4-4-| 
D|-4-4-4-4-2-2-2-2-0-0-0-0-7-7-7-7-2-2-2-2-2-2-2-2-3-3-3-3-3-3-3-3-| 
 
***Chorus*** 
 
E|---------------------------------|  
B|---------------------------------| 
G|---------------------------------| x2 
D|-4-4-4-4-2-2-2-2-0-0-0-0-0-0-0-0-| 
A|-4-4-4-4-2-2-2-2-0-0-0-0-0-0-0-0-| 
D|-4-4-4-4-2-2-2-2-0-0-0-0-0-0-0-0-| 
 
E|-----------------------------------------------------------------|   
B|-----------------------------------------------------------------| 
G|-----------------------------------------------------------------| 
D|-4-4-4-4-2-2-2-2-0-0-0-0-7-7-7-7-2-2-2-2-2-2-2-2-2-2-2-2---------| 
A|-4-4-4-4-2-2-2-2-0-0-0-0-7-7-7-7-2-2-2-2-2-2-2-2-2-2-2-2-4-4-4-4-| 
D|-4-4-4-4-2-2-2-2-0-0-0-0-7-7-7-7-2-2-2-2-2-2-2-2-2-2-2-2-3-3-3-3-| 
 
***Solo*** 
 
E|--9---7--7-----7--0h7--------9---7--7----10-9----7--9----   
B|-10--10-10-10-10---10-10----10--10-10-10-----10-10-10---- 
G|-----------------------9--------------------------------- 
D|--------------------------------------------------------- 
A|--------------------------------------------------------- 
D|--------------------------------------------------------- 
 
E|--9---7--7-----7--0h7-----9--7---9-7-9-7-9-7-9-7-10-9-7----|   
B|-10--10-10-10-10---10-10-10-10--1010101010101010--------10-| 
G|-----------------------9-----------------------------------| 
D|-----------------------------------------------------------| 
A|-----------------------------------------------------------| 
D|-----------------------------------------------------------| 
 
***Outro*** 
Gtr 1 
E|---------------------------------|  
B|---------------------------------| 
G|---------------------------------| 
D|-4-4-4-4-2-2-2-2-0-0-0-0-0-0-0-0-| 
A|-4-4-4-4-2-2-2-2-0-0-0-0-0-0-0-0-| 
D|-4-4-4-4-2-2-2-2-0-0-0-0-0-0-0-0-| 
Gtr 2 
E|-----------------------------------------|  
B|-----------------------------------------| 
G|-11-11-11-11-13-13-13-13-7-7-7-7-7-7-7-7-| 
D|--x--x--x--x--x--x--x--x-x-x-x-x-x-x-x-x-|1st time________        
A|--9--9--9--9-11-11-11-11-5-5-5-5-5-5-5-5-|                   
D|-----------------------------------------|                  
Gtr 2                                                         | 
E|-------------------------------------------------|          | 
B|-------------------------------------------------|         / 
G|-11-11-11-11-13-13-13-13-14-14-14-14-14-14-14-14-|        / 
D|--x--x--x--x--x--x--x--x--x--x--x--x--x--x--x--x-|2nd time 
A|--9--9--9--9-11-11-11-11-12-12-12-12-12-12-12-12-| 
D|-------------------------------------------------| 
 
Lyrics (by 'Lital') 
 
remember going all the 
way to oakland just to 
see them play? 
we've come such a 
long way today 
 
got some drugs in 
the bathroom stall 
sneaking beer into an 
empty unlit hall 
i sent you a 
postcard today 
son't mind the message 
 
that was a good time 
we'll never have again 
glad to see it end 
 
i've put some miles 
on these eyes 
i've put some scars 
on these broken 
hands of mine 
punching walls and 
valentine's to you 
i missed another 
gone for a year today 
can't see you now 
i'm leaving anyway 
i'm at the bar for  
you waiting 
 
 
_______________________________________________________ 
Contribuição: Helena Baltrusaitis([email protected]) 
		  

See also:

tabs X-files - Theme Song tabs Eddie Cochran - Summer time blues tabs Tenacious D - Wonderboy (ver. 1) tabs Poison - Unskinny Bop tabs Tenacious D - Her Gently tabs The Donnas - Take It Off
e-chords

Other versions:

tabs Jackson - All the way tabs Jackson United - All the way tabs Judas Priest - All The Way tabs Kiss - All The Way tabs New Order - All The Way tabs Rival Sons - All The Way
auto scroll beats size up size down change color hide chords drawings
tab show chords e-chords YouTube Clip e-chords hide all tabs e-chords go to top tab

share