Jackass

home > Jackass

Jackass Tab

Jackass

Difficulty: BeginnerBeginner

by Guirocknaveia

tuner correct add songbook print version text version save to e-mail
chordsukulelecavacokeyboardtabbassdrumsharmonicsflute Guitar Pro
chords

Jackass

  		Guilherme Breda Rezende ([email protected]).

e|---------------------|
B|------7------5-3-1-0-|
G|4-5s7---7~~--5-4-2-0-|
D|0-0-0----------------|
A|---------------------|
E|---------------------|

						     2x
e|-------------------------------------------------------|-----------|
B|-0-0-0-0-0-0-0-0-0-0-3-5-7-7-7-7-7-3-5-7-7-7-7-7-5-3-1-|-0~~-------|
G|-0-0-0-0-0-0-0-0-0-0-4-5-7-7-7-7-7-4-5-7-7-7-7-7-5-4-2-|-0~~-------|
D|-------------------------------------------------------|-----------|
A|-------------------------------------------------------|-----------|
E|-------------------------------------------------------|-----------|
	  

Search Paypal
auto scroll beats size up size down change color hide chords drawings
tab show chords e-chords YouTube Clip e-chords hide all tabs e-chords go to top tab