Jackass

home > Jackass

If You Are Gonna Be Dumb Tab

Jackass

Difficulty: BeginnerBeginner

tuner correct add songbook print version text version save to e-mail
chordsukulelecavacokeyboardtabbassdrumsharmonicsflute Guitar Pro
chords

If You Are Gonna Be Dumb

  		 TRANSCRIBED BY RUDY GUZMAN 
 
 
[email protected] 
 
 
e:-3--3-----3--3-----3-3-3-3-3-3-3-3-3-3-| 
B:-3--3-----3--3-----3-3-3-3-3-3-3-3-3-3-| 
G:-0--0--0--0--0--0--0-0-0-0-0-0-0-0-0-0-| 
D:-0--0--0--0--0--0--0-0-0-0-0-0-0-0-0-0-| 
A:-2-----2--2-----2--2-2-2-2-2-2-2-2-2-2-| 
E:-3-----3--3-----3--3-3-3-3-3-3-3-3-3-3-| 
 
 
e:-0--0-----0--0--0--0-0-0-0-0-0-0-0-0-0-0-0-0--| 
B:-1--1-----1--1--1--1-1-1-1-1-1-1-1-1-1-1-1-1--| 
G:-0--0--0--0--0--0--0-0-0-0-0-0-0-0-0-0-0-0-0--| 
D:-2--2--2--2--2--2--2-2-2-2-2-2-2-2-2-2-2-2-2--| 
A:-3-----3--3-----3--3-3-3-3-3-3-3-3-3-3-3-3-3--| 
E:----------------------------------------------| 
 
e:-----2-----2--2-----2--2-2-2-2-2-2-2-2-2-2-2-2-| 
B:--3--3--3--3--3--3--3--3-3-3-3-3-3-3-3-3-3-3-3-| 
G:--2--2--2--2--2--2--2--2-2-2-2-2-2-2-2-2-2-2-2-| 
D:0-0--0--0-----0--0-----0-0-0-0-0-0-0-0-0-0-0-0-| 
A:-----------------------------------------------| 
E:-----------------------------------------------| 
 
e:-3--3-----3--3-----3-3-3-3-3--| 
B:-3--3-----3--3-----3-3-3-3-3--| 
G:-0--0--0--0--0--0--0-0-0-0-0--| 
D:-0--0--0--0--0--0--0-0-0-0-0--| 
A:-2-----2--2-----2--2-2-2-2-2--| 
E:-3-----3--3-----3--3-3-3-3-3--| 
 
if you are going to Be dumB.... 
 
verse 
e--0--0-----0--0--0--0-0-0-0-0-0-0-| 
B:-1--1-----1--1--1--1-1-1-1-1-1-1-| 
G:-0--0--0--0--0--0--0-0-0-0-0-0-0-| 
D:-2--2--2--2--2--2--2-2-2-2-2-2-2-| 
A:-3-----3--3-----3--3-3-3-3-3-3-3-| 
E:---------------------------------| 
 
e:---2-----2--2-----2--2-2-2-2-2-2-2-| 
B:---3--3--3--3--3--3--3-3-3-3-3-3-3-| 
G:---2--2--2--2--2--2--2-2-2-2-2-2-2-| 
D:0--0--0-----0--0-----0-0-0-0-0-0-0-| 
A:-----------------------------------| 
E:-----------------------------------| 
 
e:-3--3-----3--3-----3-3-3-3-3-3-3-3-3-3-3-3-3-3-3-3-3-3-| 
B:-3--3-----3--3-----3-3-3-3-3-3-3-3-3-3-3-3-3-3-3-3-3-3-| 
G:-0--0--0--0--0--0--0-0-0-0-0-0-0-0-0-0-0-0-0-0-0-0-0-0-| 
D:-0--0--0--0--0--0--0-0-0-0-0-0-0-0-0-0-0-0-0-0-0-0-0-0-| 
A:-2-----2--2-----2--2-2-2-2-2-2-2-2-2-2-2-2-2-2-2-2-2-2-| 
E:-3-----3--3-----3--3-3-3-3-3-3-3-3-3-3-3-3-3-3-3-3-3-3-| 
 
e--0--0-----0--0--0--0-0-0-0-0-0-0-| 
B:-1--1-----1--1--1--1-1-1-1-1-1-1-| 
G:-0--0--0--0--0--0--0-0-0-0-0-0-0-| 
D:-2--2--2--2--2--2--2-2-2-2-2-2-2-| 
A:-3-----3--3-----3--3-3-3-3-3-3-3-| 
E:---------------------------------| 
 
e:---2-----2--2-----2--2-2-2-2-2-2-2-| 
B:---3--3--3--3--3--3--3-3-3-3-3-3-3-| 
G:---2--2--2--2--2--2--2-2-2-2-2-2-2-| 
D:0--0--0-----0--0-----0-0-0-0-0-0-0-| 
A:-----------------------------------| 
E:-----------------------------------| 
 
e:-3--3-----3--3-----3-3-3-3-3--| 
B:-3--3-----3--3-----3-3-3-3-3--| 
G:-0--0--0--0--0--0--0-0-0-0-0--| 
D:-0--0--0--0--0--0--0-0-0-0-0--| 
A:-2-----2--2-----2--2-2-2-2-2--| 
E:-3-----3--3-----3--3-3-3-3-3--| 
 
e:---2-----2--2-----2--2-2-2-2-2-2-2-| 
B:---3--3--3--3--3--3--3-3-3-3-3-3-3-| 
G:---2--2--2--2--2--2--2-2-2-2-2-2-2-| 
D:0--0--0-----0--0-----0-0-0-0-0-0-0-| 
A:-----------------------------------| 
E:-----------------------------------| 
 
e:-3--3-----3--3-----3-3-3-3-3-3-3-3-3-3-| 
B:-3--3-----3--3-----3-3-3-3-3-3-3-3-3-3-| 
G:-0--0--0--0--0--0--0-0-0-0-0-0-0-0-0-0-| 
D:-0--0--0--0--0--0--0-0-0-0-0-0-0-0-0-0-| 
A:-2-----2--2-----2--2-2-2-2-2-2-2-2-2-2-| 
E:-3-----3--3-----3--3-3-3-3-3-3-3-3-3-3-| 
 
:------------------2--3--| 
:-0-0-0--1-1--0-0--3--3--| 
:-0-0-0--0-0--0-0--2--0--| 
:-0---0--0-0--0-0--0--0--| 
:---------------------2--| 
:---------------------3--| 
 

	  

Search Paypal
auto scroll beats size up size down change color hide chords drawings
tab show chords e-chords YouTube Clip e-chords hide all tabs e-chords go to top tab