Jack Savoretti

Soldiers Eyes

Jack Savoretti

tabs

by  AMAN_CLAUDINO

save to print version add songbook text version e-mail correct tuner
chordsukulelecavacokeyboardtabbassdrumsharmonicaflute Guitar Pro
close

there isn't a video lesson for this song

chords

Soldiers Eyes

	  		This is how i play the song, i think it is pretty close if not perfect, i use the same riffs and variations in 
the other parts of the song that aren't tabbed here.. hope it helps!! (i figured this out in a day, the more i  
play the song the more ill pick up on things i have missed, but since i have not seen a tab for this song any- 
where i thought i would at least give people something to work off!) if i have made any mistakes or you have a 
better way to play it, please let me know :) it's a great song, that deserves to be played!! 
Whole song is finger picked. 


Intro -  
       Am                                                C 
e-------------------------------------------------------------------------| 
b--------1-----1----------1-----1----------1-----1-------1------1------1--| 
g------2-----2----------2-----2----------2-----2-------0------0------2----| x2 
d--0h2--------------0h2--------------0h2----------------------------------| 
a----------0----------------0----------------0-------3------2------0------| 
e-------------------------------------------------------------------------| 


Verse - (all 3 verses are played the same) 

      Am                                     C 
e------------------------------------------------------------------------| 
b--------1-----1----------1-----1------------1-----1----------1-----1----| 
g------2-----2----------2-----2------------0-----0----------2-----2------| 
d--0h2--------------0h2----------------0h2--------------0h2--------------| 
a----------0----------------0------------------3----------------3--------| 
e------------------------------------------------------------------------| 

     G                                      Am 
e------------------------------------------------------------------------| 
b------3------3--------3-------3-------------1-----1----------1-----1----| 
g----0------0--------0-------0-------------2-----2----------2-----2------| x2 
d--0---------------0-------------------0h2--------------0h2--------------| 
a---------2----------------2-------------------0----------------0--------| 
e------------------------------------------------------------------------| 


But i know... part - 

    Am                              C (But i know....) 
e------------------------------------------------------------------------| 
b--------1-----1----------1-----1----------1-----1----------1-----1------| 
g------2-----2----------2-----2----------0-----0----------2-----2--------| 
d--0h2--------------0h2--------------0h2--------------0h2----------------| 
a----------0----------------0----------------3----------------3----------| 
e------------------------------------------------------------------------| 


   G                              Am (Home soon!.......)        C 
e--------------------------------------------------------------------------| 
b------3------3--------3-------3-------------1-----1----------1----------1-| 
g----0------0--------0-------0-------------2-----2----------2----------2---| x2 
d--0---------------0-------------------0h2--------------0h2----------------| 
a---------2----------------2-------------------0----------------3-2-0------| 
e--------------------------------------------------------------------------| 


With a soldier's eyes - I'm going off the chords i have read in other tabs here on this site (give credit for  
                        chord structure to those tabs), using the same finger picking motion & technique i add 
                        Em then to Am & so on.., hope that helps! This comes in after the 2nd Chorus:  


 Em:   With a soldiers eyes.. 
e----------------| 
b------0------0--| 
g----0------0----| x2 
d--2-------------| 
e---------2------| 
a----------------| 


 Am:   with a soldiers eyes... 
e------------------| 
b--------1-----1---| 
g------2-----2-----| x2 
d--0h2-------------| 
a----------0-------| 
e------------------| 

 Em:   With a soldiers eyes.. 
e----------------| 
b------0------0--| 
g----0------0----| x2 
d--2-------------| 
e---------2------| 
a----------------| 


 Am:   with a soldiers eyes... 
e------------------| 
b--------1-----1---| 
g------2-----2-----| x2 
d--0h2-------------| 
a----------0-------| 
e------------------| 
		  

Full key step upFull key step up
Half key step upHalf key step up
Half key step downHalf key step down
Full key step downFull key step down
hide glossary

See also:

tabs Phoenix - Everything is everything tabs Phoenix - Lisztomania tabs Dead or Alive - You spin me right round tabs Lindsey Stirling - Crystallize tabs JerryC - CAnoN RoCk .1. tabs Vanilla Ice - Ice ice baby (intro)
e-chords

Other versions:

tabs Jack Savoretti - Soldiers Eyes
auto scroll beats size up size down change color hide chords drawings
tab show chords e-chords YouTube Clip e-chords hide all tabs e-chords go to top tab

share