Jacco Gardner

Notus

Jacco Gardner

tabs

by  GUSTSILVA

save to print version add songbook text version e-mail correct tuner
chordsukulelecavacokeyboardtabbassdrumsharmonicaflute Guitar Pro
close

there isn't a video lesson for this song

chords

Notus

Key:  D More
Notus Key AA
Notus Key A#A#
Notus Key BB
Notus Key CC(one step down)
Notus Key C#C#(half step down)
Notus Key DD(original key)
Notus Key D#D#(half step up)
Notus Key EE(one step up)
Notus Key FF
Notus Key F#F#
Notus Key GG
Notus Key G#G#
	  		Jacco Gardner - Notus 

MAIN RIFF (all three bars) 
   D               Bb/D  
e|-5----0--5----0--1----0--1----0--| 
B|----7-------7-------3-------3----|  \ 
G|---7---7---7---7---3---3---3---3-|   2x 
D|-0---0---0---0---0---0---0---0---|  / 
A|---------------------------------| 
E|---------------------------------| 

   Am              Amdim 
e|------0-------0-------0-------0--| 
B|-1-------1-------4-------4-------|  \ 
G|----2-------2-------2-------2----|   2x 
D|---2---2---2---2---2---2---2---2-|  / 
A|-0---0---0---0---0---0---0---0---| 
E|---------------------------------| 

   E      Esus4     Fmaj7   C 
e|-0----------------0-------0-------| 
B|------0--------0-------1-------1--|  \ 
G|----1---2-1--2-------2-------0----|   2x 
D|---2---2----2---2---3---3---2---2-|  / 
A|------------------3---3---3---3---| 
E|-0---0--0-----0-------------------| 

INTERLUDE 
e|----5-----57---------8---------10---| 
B|--56-----6---------10--------12-----| 
G|-7------7-------910------1012-------| 
D|------------------------------------| 
A|------------------------------------| 
E|------------------------------------| 

INTERLUDE MELODY 
e|----------------------5--7-87----| 
B|-----------------5-68---------8--| 
G|-----------45-7------------------| 
D|------5--7-----------------------| 
A|-5-78----------------------------| 
E|---------------------------------| 

INTERLUDE with chords 
Dm    Em 
F     G7 

OUTRO (MAIN RIFF chords) 
D       Bb 2x      \ 
Am      Amdim 2x    4x 
E Esus4 Fmaj7 C    / 
		  

Full key step upFull key step up
Half key step upHalf key step up
Half key step downHalf key step down
Full key step downFull key step down
hide glossary

See also:

tabs Heidevolk - Een Geldersch Lied
e-chords

Other versions:

tabs Jacco Gardner - Notus
auto scroll beats size up size down change color hide chords drawings
tab show chords e-chords YouTube Clip e-chords hide all tabs e-chords go to top tab

share