Jacco Gardner

Cabinet Of Curiosities

Jacco Gardner

tabs

by  AMAN_CLAUDINO

save to print version add songbook text version e-mail correct tuner
chordsukulelecavacokeyboardtabbassdrumsharmonicaflute Guitar Pro
close

there isn't a video lesson for this song

chords

Cabinet Of Curiosities

	  		

CAPO III 

NB: This is an Instrumental song. 

Am     Dm 
Bb     B7 
E  E7  Cmaj7 
Bm     Fadd6 

Band kicks in 

Am     Dm 
Bb     B7 
E  E7  Cmaj7 
Bm     Fadd6 

Harpsichord part 
   F              C 
e|-5-53--01310131-0---0-010--| 
B|-----6---------------------| 
G|---------------------------| 
D|---------------------------| 
A|---------------------------| 
E|---------------------------| 

   B7             Em 
e|--02--------02-?02320--02320232-| 
B|-4----4--4-4--------------------| 
G|--------------------------------| 
D|--------------------------------| 
A|--------------------------------| 
E|--------------------------------| 

Am     Dm    \ 
Bb     B7     \ 2x 
E  E7  Cmaj7  / 
Bm     Fadd6 / 

Harpsichord part until fade out (roughly 6x) 

_______________________________________ 

   Cmaj7 Fadd6 
e|---0-----1---| 
B|---0-----3---| 
G|---0-----2---| 
D|---2-----3---| 
A|---3----(3)--| 
E|--------(1)--| 
		  

Full key step upFull key step up
Half key step upHalf key step up
Half key step downHalf key step down
Full key step downFull key step down
hide glossary

See also:

tabs Heidevolk - Een Geldersch Lied
e-chords

Other versions:

tabs Jacco Gardner - Cabinet Of Curiosities
auto scroll beats size up size down change color hide chords drawings
tab show chords e-chords YouTube Clip e-chords hide all tabs e-chords go to top tab

share