J Mascis The Fog

Say The Word

J Mascis The Fog

tabs

by  ANDRSOUZA

save to print version add songbook text version e-mail correct tuner
chordsukulelecavacokeyboardtabbassdrumsharmonicaflute Guitar Pro
close

there isn't a video lesson for this song

chords

Say The Word

	  		

Verse: 

(relative to capo/nut) 

e|---------3~~~------------3~~~------------3~~~------------3~~~--------------| 
B|-x---x---3~~~------------3~~~----x---x---3~~~------------3~~~--------------| 
G|-2---2---2~~~x-x-x-x-x---0~~~x-x-2---2---2~~~x-x-x-x-x---0~~~--------------| 
D|-3---3---3~~~x-x-2-2-2---2~~~x-x-3---3---3~~~x-x-2-2-2---2~~~--------------| 
A|-x---x---x---x-x-3-3-3---3~~~x-x-x---x---x---x-x-3-3-3---3~~~--------------| 
E|---------------------------------------------------------------------------| 

e|-----3-3~~~~~~~14-15---14--------------------------------------------------| 
B|-----3-3~~~~~~~-----------15\----------------------------------------------| 
G|-----0-2~~~~~~~------------------------------------------------------------| 
D|-----3-3~~~~~~~------------------------------------------------------------| 
A|-x-x-----------------------------------------------------------------------| 
E|---------------------------------------------------------------------------| 

here's a couple bits of the solo i could identify: 

e|---------------------------------------------------------------------------| 
B|-7h8p7---7-----7-8-7-7-----------------------------------------------------| 
G|-------9---9b~~------9brb9-7-9-7-6-4~~-------------------------------------| 
D|---------------------------------------------------------------------------| 
A|---------------------------------------------------------------------------| 
E|---------------------------------------------------------------------------| 

e|---------------------------------------------------------------------------| 
B|---------------------------------------------------------------------------| 
G|-6h7p6\4/6h7p6\4/6h7/9\7p6\4/6/11-11-11-11---------------------------------| 
D|-------------------------------wahwahwahwah--------------------------------| 
A|---------------------------------------------------------------------------| 
E|---------------------------------------------------------------------------| 

e|-17b17b---17b17b---14---14----14-14~~~14h15p14h15/17/19b~~17h19-19---------| 
B|---------------------------17----17b~~-------------------------------------| 
G|---------------------------------------------------------------------------| 
D|---------------------------------------------------------------------------| 
A|---------------------------------------------------------------------------| 
E|---------------------------------------------------------------------------| 

e|-19\17-17-17-17\-14-14-14-14-14h15p14----14----14--------------------------| 
B|--------------------------------------17----15----15-14~~~-----------------| 
G|---------------------------------------------------------------------------| 
D|---------------------------------------------------------------------------| 
A|---------------------------------------------------------------------------| 
E|---------------------------------------------------------------------------| 

e|---------------------------------------------------------------------------| 
B|-14h15~~~14h15b~~15-14-15-14h15p14-14-------------14h15p14h15p14~~~--------| 
G|-----------------------------------16b~~16brb14~~~-------------------------| 
D|---------------------------------------------------------------------------| 
A|---------------------------------------------------------------------------| 
E|---------------------------------------------------------------------------| 

e|----------17brb17~~~14h17p14----14-14-14-14-14-14-14-14--------------------| 
B|-14-15-14--------------------17----17b17b17b17b17b17b17b-------------------| 
G|---------------------------------------------------------------------------| 
D|---------------------------------------------------------------------------| 
A|---------------------------------------------------------------------------| 
E|---------------------------------------------------------------------------| 

e|-15-14----14----14---------------------------------------------------------| 
B|-------17----15----15-14~~~15-14-15-14-------------------------------------| 
G|------------------------------------16b------------------------------------| 
D|---------------------------------------------------------------------------| 
A|---------------------------------------------------------------------------| 
E|---------------------------------------------------------------------------| 

the part that keeps being repeated bar after bar is probably something like  
this: 

e|----------------| 
B|----------12----| 
G|-11h12/14-------| 
D|----------------| 
A|----------------| 
E|----------------| 

thats as much as i could pick up. it's hard to tab when there's no videos of  
live performances online. heh. any corrections are very welcome. 

************************************ 

| /   slide up 
| \   slide down 
| h   hammer-on 
| p   pull-off 
| ~   vibrato 
| +   harmonic 
| x   Mute note 
| b   Bend 
| pb  Pre-bend 
| br  Bend release 
| pbr Pre-bend release 
| brb Bend release bend 

************************************ 
		  

See also:

tabs Deep Purple - Smoke On The Water (Intro + solo 01) tabs Deep Purple - Perfect Strangers tabs Deep Purple - Smoke on the water (ver. 3) tabs Ira! - Eu Quero Sempre Mais (ver. 2) tabs Deep Purple - Fireball (ver. 2) tabs Deep Purple - Squished Bananas Dave&cammey
e-chords

Other versions:

tabs J Mascis The Fog - Say The Word
auto scroll beats size up size down change color hide chords drawings
tab show chords e-chords YouTube Clip e-chords hide all tabs e-chords go to top tab

share with facebook