J. Cole

No Role Modelz

J. Cole

tabs

by  EDUCASTILHO

save to print version add songbook text version e-mail correct tuner
chordsukulelecavacokeyboardtabbassdrumsharmonicaflute Guitar Pro
close

there isn't a video lesson for this song

chords

No Role Modelz

	  		
INTRO/VERSE/Chorus/OUTRO 

1:  C#                             Bbm 
2:  Fm                             Ab 
e|-----------------------------------------|--------------------------------------| 
B|--13-(13)-11-9-11-9----------------------|-----13-11-9-11-9---------------------| 
G|--------------------12-10----------------|------------------12-10---------------| 
D|----------------------------9----9-------|--------------------------9---9-------| 
A|-----------------------------------------|--------------------------------------| 
E|-----------------------------------------|--------------------------------------| 
    1   +      2    +    3    +    4   +     1   +     2    +    3    +   4   + 


Or if you'd like to play it an octave lower so it's more like how it is in the song: 

1:  C#                         Bbm 
2:  Fm                         Ab 
e|------------------------------------|----------------------------------| 
B|------------------------------------|----------------------------------| 
G|------------------------------------|----------------------------------| 
D|--10-(10)-8-6-8-6-------------------|-----10-8-6-8-6-------------------| 
A|------------------10-8--------------|----------------10-8--------------| 
E|-------------------------8---8------|-----------------------8---8------| 
    1   +     2   +    3   +   4   +    1   +    2   +    3   +   4   + 


************************************ 
| (n)  Ghost note 
************************************ 
		  

Full key step upFull key step up
Half key step upHalf key step up
Half key step downHalf key step down
Full key step downFull key step down
hide glossary

See also:

tabs Alligatoah - Trauerfeier Lied tabs Prinz Pi - Kompass Ohne Norden tabs Kraftklub - Ritalinmedikinet tabs Kraftklub - Eure Mädchen tabs Alligatoah - Trauerfeier tabs Kraftklub - Ich Will Nicht Nach Berlin
e-chords

Other versions:

tabs J. Cole - No Role Modelz
auto scroll beats size up size down change color hide chords drawings
tab show chords e-chords YouTube Clip e-chords hide all tabs e-chords go to top tab

share