IZECOLD

Swiggity

IZECOLD

tabs nolevel nolevel

by  VICTBORGES

save to print version add songbook text version e-mail correct tuner
chordsukulelecavacokeyboardtabbassdrumsharmonicaflute Guitar Pro
close

there isn't a video lesson for this song

chords

Swiggity

	  		
e|---4-----0------4---2-0------4-----0------4---4-5-0-| 
B|-2---2-0---4--2---2-----4--2---2-0---4--2---2-------| 
G|----------------------------------------------------|x4 
D|----------------------------------------------------| 
A|----------------------------------------------------| 
E|----------------------------------------------------| 


0:30-1:00 Sometimes that main beat goes up an octave like so. 

e|----16-------12-11----------14-12-11----16-------12-11----------16-17----| 
B|-14----14-12-------14-14-14----------14----14-12-------14-14-14-------16-| 
G|-------------------------------------------------------------------------| x2 
D|-------------------------------------------------------------------------| 
A|-------------------------------------------------------------------------| 
E|-------------------------------------------------------------------------| 

e|----16-------12-11----16----14-12-11----16-------12-11----16----16-17----| 
B|-14----14-12-------14----14----------14----14-12-------14----14-------16-| 
G|-------------------------------------------------------------------------|  
D|-------------------------------------------------------------------------| 
A|-------------------------------------------------------------------------| 
E|-------------------------------------------------------------------------| 

e|----16-------12-11----16----14-12-11----16-------12-11-------------------------| 
B|-14----14-12-------14----14----------14----14-12-------14-14-14-14-14-14-14-14-| 
G|-------------------------------------------------------------------------------|  
D|-------------------------------------------------------------------------------| 
A|-------------------------------------------------------------------------------| 
E|-------------------------------------------------------------------------------| 


Solo 1:30-1:48 

e|-16-12-14-12-9-7-9-11---9---------------------------10-12-14----10-12-| 
B|----------------------9---12---------------------12----------12-------| 
G|-----------------------------11-9-8---------9-11----------------------| 
D|------------------------------------11-9-11---------------------------| 
A|----------------------------------------------------------------------| 
E|----------------------------------------------------------------------| 


Second Solo Thing 3:15-3:50  
In the song it's actually played an octave higher, but I think it's a little easier like this. 

e|-----7-9-7--------------------------------------------7-9-7---------------------------------------4-5-0| 
B|-7-9-------9-7-------9---7-------9-----------9----7-9-------9-7-------9---7-------9-----------9--------| 
G|---------------9-8-9---6---9-8-9---6---9-8-6---6----------------9-8-9---6---9-8-9---6---9-8-6---6------|  
D|-------------------------------------9------------------------------------------------9----------------| 
A|-------------------------------------------------------------------------------------------------------| 
E|-------------------------------------------------------------------------------------------------------| 


e|---4-------4-----0-------4-------4-7-4-4-2-4--9-7-------------0-------4-------4-7-4-0-------| 
B|-2---2-0-2---2-0---4-0-2---2-0-2------------------9-7---9-------4-0-2---2-0-2---------4-5---| 
G|------------------------------------------------------9---6---------------------------------| 
D|------------------------------------------------------------9-------------------------------| 
A|--------------------------------------------------------------------------------------------| 
E|--------------------------------------------------------------------------------------------| 
		  

See also:

tabs Doa - Sexyest Girl tabs Deep Purple - Smoke on the water (intro) tabs Deep Purple - Highway Star tabs Albert Hammond Jr - Holiday tabs Deep Purple - Deep Purple - Smoke On The Water tabs Deep Purple - Ted The Mechanic
e-chords

Other versions:

tabs IZECOLD - Swiggity
auto scroll beats size up size down change color hide chords drawings
tab show chords e-chords YouTube Clip e-chords hide all tabs e-chords go to top tab

share with facebook