Itchy Poopzkid

And Now We Stopped

Itchy Poopzkid

tabs

by  PAULANTUNES

save to print version add songbook text version e-mail correct tuner
chordsukulelecavacokeyboardtabbassdrumsharmonicaflute Guitar Pro
close

there isn't a video lesson for this song

chords

And Now We Stopped

	  		Intro/Verse/Bridge: 

e |--------1-----------1-----------1-----------1----| 
B |-----2-----------2-----------2-----------2-------| 
G |--3-----------3-----------3-----------3----------| 
D |-------------------------------------------------| 
A |-------------------------------------------------| 
E |-------------------------------------------------| 


--------1-----------1-----------1-----------1-------| 
-----2-----------2-----------2-----------2----------| 
--1-----------1-----------1-----------1-------------| 
----------------------------------------------------| 
----------------------------------------------------| 
----------------------------------------------------| 


----------------------------------------------------| 
--------4-----------4-----------4-----------4-------| 
-----5-----------5-----------5-----------5----------| 
--6-----------6-----------6-----------6-------------| 
----------------------------------------------------| 
----------------------------------------------------| 


----------------------------------------------------| 
--------2-----------2-----------1-----------1-------| 
-----3-----------3-----------2-----------2----------| 
--4-----------4-----------3-----------3-------------| 
----------------------------------------------------| 
----------------------------------------------------| 



Chorus: 

e |--------------|----------|----------------------------|----------------------------| 
B |--------------|----------|----------------------------|----------------------------| 
G |--------------|----------|----------------------------|----------------------------| 
D |------4--6----|--8--11---|--4--4--4--4--6--6--6--6----|--8--8--8--8--11-11-11-11---| 
A |------4--6----|--8--11---|--4--4--4--4--6--6--6--6----|--8--8--8--8--11-11-11-11---| 
E |------2--4----|--6--9----|--2--2--2--2--4--4--4--4----|--6--6--6--6--9--9--9--9----| 


|----------------------------|----------------------------| 
|----------------------------|----------------------------| 
|----------------------------|----------------------------| 
|--4--4--4--4--4--4--4--4----|--6--6--6--6--6--6--6--6----| 
|--4--4--4--4--4--4--4--4----|--6--6--6--6--6--6--6--6----| 
|--2--2--2--2--2--2--2--2----|--4--4--4--4--4--4--4--4----| 


|----------------------------|----------------------------| 
|----------------------------|----------------------------| 
|----------------------------|----------------------------| 
|--8--8--8--8--8--8--8--8----|--11-11-11-11-11-11-11-11---| 
|--8--8--8--8--8--8--8--8----|--11-11-11-11-11-11-11-11---| 
|--6--6--6--6--6--6--6--6----|--9--9--9--9--9--9--9--9----| 


|----------------------------|----------------------------| 
|----------------------------|----------------------------| 
|----------------------------|----------------------------| 
|--4--4--4--4--4--4--4--4----|--6--6--6--6--6--6--6--6----| 
|--4--4--4--4--4--4--4--4----|--6--6--6--6--6--6--6--6----| 
|--2--2--2--2--2--2--2--2----|--4--4--4--4--4--4--4--4----| 


|----------------------------|----------------------------|----------------------------| 
|----------------------------|----------------------------|----------------------------| 
|----------------------------|----------------------------|--11-11-11-11-10------------| 
|--8--8--8--8--8--8--8--8----|--11-11-11-11-11-11-11-11---|--11-11-11-11-10------------| 
|--8--8--8--8--8--8--8--8----|--11-11-11-11-11-11-11-11---|--9--9--9--9--8-------------| 
|--6--6--6--6--6--6--6--6----|--9--9--9--9--9--9--9--9----|----------------------------| 



2nd Verse: 

e |-----1-----1-----1-----1----|-----1-----1-----1-----1----| 
B |-----2-----2-----2-----2----|-----2-----2-----2-----2----| 
G |-----3-----3-----3-----3----|-----1-----1-----1-----1----| 
D |----------------------------|----------------------------| 
A |----------------------------|----------------------------| 
E |----------------------------|----------------------------| 


----------------------------|----------------------------| 
-----4-----4-----4-----4----|-----2-----2-----1-----1----| 
-----5-----5-----5-----5----|-----3-----3-----2-----2----| 
-----6-----6-----6-----6----|-----4-----4-----3-----3----| 
----------------------------|----------------------------| 
----------------------------|----------------------------|  
		  

auto scroll beats size up size down change color hide chords drawings
tab show chords e-chords YouTube Clip e-chords hide all tabs e-chords go to top tab

share