Iron Butterfly

IronButterfly-in A Gadda Da Vida

Iron Butterfly

tabs Expert expert

save to print version add songbook text version e-mail correct tuner
chordsukulelecavacokeyboardtabbassdrumsharmonicaflute Guitar Pro
close

there isn't a video lesson for this song

chords

IronButterfly-in A Gadda Da Vida

	  		 
Organ Intro arranged for guitar: 
   Dm 
e:------------------------|-1--------1--5--------5-|-10------10-13-------13-| 
B:-------------3--------3-|-------3-----------6----|------10----------15----| 
G:-2--------2--------2----|----2-----------7-------|---10----------14-------| 
D:----0-h3--------3-------|------------------------|------------------------| 
A:------------------------|------------------------|------------------------| 
E:------------------------|------------------------|------------------------| 
 
e:-17-----15--h17--13--15-|------12---12-----------|| 
B:------------------------|----------------15---13-|| 
G:------------------------|------------------------|| 
D:------------------------|------------------------|| 
A:------------------------|------------------------|| 
E:------------------------|------------------------|| 
 
 
  Bass Riff: 
G:------------------------|------------------------|| 
D:-------------3--2-------|----7-----6-----5-------|| 
A:-5-----5-----------3--5-|----------------------3-|| 
E:------------------------|------------------------|| 
 
 
  Main Guitar Riff: 
e:------------------------|------------------------|------------------------| 
B:------------------------|------------------------|------------------------| 
G:------------------------|------------------------|------------------------| 
D:-0-----0-----3--2----0--|----7-----6-----5----s3-|-0-----0-----3--2-----0-| 
A:-------------------3----|------------------------|-------------------3----| 
E:------------------------|------------------------|------------------------| 
    
 
e:------------------------|------------------------|------------------------| 
B:------------------------|------------------------|------------------------| 
G:------------------------|------------------------|------------------------| 
D:----7-----6-----5----s3-|-0-----0-----3--2-----0-|----7-----6-----5----s3-| 
A:------------------------|-------------------3----|------------------------| 
E:------------------------|------------------------|------------------------| 
 
      In - a -gadda - da - vida    honey             Don't cha' know that I 
e:------------------------|------------------------|------------------------| 
B:------------------------|------------------------|------------------------| 
G:------------------------|------------------------|------------------------| 
D:-0-----0-----3--2-----0-|----7-----6-----5----s3-|-0-----0-----3--2-----0-| 
A:-------------------3----|------------------------|-------------------3----| 
E:------------------------|------------------------|------------------------| 
 
   love     you               In - a - gadda - da - vida     baby 
e:------------------------|------------------------|------------------------| 
B:------------------------|------------------------|------------------------| 
G:------------------------|------------------------|------------------------| 
D:----7-----6-----5----s3-|-0-----0-----3--2-----0-|---7-----6-----5-----s3-| 
A:------------------------|-------------------3----|------------------------| 
E:------------------------|------------------------|------------------------| 
 
  Don't cha'know that I'll  always  be true 
e:------------------------|------------------------|------------------------| 
B:------------------------|------------------------|------------------------| 
G:------------------------|------------------------|------------------------| 
D:-0-----0-----3--2-----0-|----7-----6-----5-------|----------------6-h7--6-| 
A:-------------------3----|------------------------|-5--7-s8--7--8----------| 
E:------------------------|------------------------|------------------------| 
 
                           G                        E7 
                                  Oh,   won't cha'   come  with  me 
e:------------------------|------------------------|------------------------| 
B:------------------------|------------------------|------------------------| 
G:------------------------|------------------------|----------1-------------| 
D:-7-h8-7-6-h7--6h7p6-----|-5-p3-----5-----5--4--3-|-2-----0--2-----2--3--4-| 
A:--------------------8-7-|-------5--5-------------|----2-------------------| 
E:------------------------|------------------------|------------------------| 
 
  G                        E7                       A 
        And 'a take   my    hand                           Oh,   won't cha' 
e:------------------------|------------------------|------------------------| 
B:------------------------|------------------------|------------------------| 
G:------------------------|----------1-------------|------------------------| 
D:-5-p3-----5-----5--4--3-|-2-----0--2-----2--3--4-|-7-p5-----7-----7--6--5-| 
A:-------5--5-------------|----2-------------------|-------7--7-------------| 
E:------------------------|------------------------|------------------------| 
 
  F#7                      A                        F#7 
   come  with  me                And 'a walk  this   land 
                                                                 ~ 
e:------------------------|------------------------|------------------------| 
B:------------------------|------------------------|------------------------| 
G:------------------------|------------------------|------------------------| 
D:-4-----2--4-----4--5--6-|-7-p5-----7-----7--6--5-|-4-----2-----4----------| 
A:----4-------------------|-------7--7-------------|----4-------------------| 
E:------------------------|------------------------|------------------------| 
 
  B                                                 Dm 
                           Please   take   my       hand 
    ~            ~          ~                        ~                 ~ 
e:------------------------|------------------------|------------------------| 
B:------------------------|-12------11-10-10b(11)r-|------------------------| 
G:-/8----------8s11-------|------------------------|-7-----------10---s9----| 
D:------------------------|------------------------|------------------------| 
A:------------------------|------------------------|------------------------| 
E:------------------------|------------------------|------------------------| 
 
  A           Asus4  
 
   ~           ~                          (2.x It's alright ..hup!)    
e:------------------------|------------------------|------------------------| 
B:------------------------|------------------------|------------------------| 
G:-6---------6s7----------|------------------------|------------------------| 
D:------------------------|-0-----0------3--2----0-|----7-----6-----5----s3-| 
A:------------------------|--------------------3---|------------------------| 
E:------------------------|------------------------|------------------------| 
 
                      (1.x Let me tell ya' about) 
                      (2.x All right now...         hup!) 
e:------------------------|------------------------| 
B:------------------------|------------------------| 
G:------------------------|------------------------| 
D:-0-----0-----3--2-----0-|----7-----6-----5----s3-| 
A:-------------------3----|------------------------| 
E:------------------------|------------------------| 
 
Organ Solo: 32 bars (w/Main Guitar Riff) 
 
Guitar variation during bars 21 to 28 of the Organ solo: 
                                               ~ 
e:------------------------|------------------------| 
B:------------------------|------------------------| 
G:------------------------|--------------------5---| 
D:-0-----0------3--2----0-|----7-------5--s7-------| 
A:--------------------3---|------------------------| 
E:------------------------|------------------------| 
 
 
Guitar varation during bars 32 to 34 of the Organ solo: 
                                                            (Hold last note) 
e:------------------------|------------------------|------------------------| 
B:------------------------|------------------------|------------------------| 
G:------------------------|------------------------|------------------------| 
D:-0-----0------3--2----0-|----------0--3-----2----|-0-----0-----3--2-----0-| 
A:--------------------3---|----------------------3-|-------------------3----| 
E:------------------------|------------------------|------------------------| 
 
 
Guitar Solo:  
 (w/Wah) 
          ~                b                           b               b 
e:------------------------|------------------------|------------------------| 
B:------------------------|------------------------|-----------------15(17)-| 
G:----10-h12------------12|(14)r------10----12-p10-|-12(14)r12p10-----------| 
D:------------------------|------10h12-------------|------------------------| 
A:------------------------|------------------------|------------------------| 
E:------------------------|------------------------|------------------------| 
 
 
           ~     b    ~      b   ~                     b   b            ~ 
e:------------------------|15(17)15-13-------------|------------------------| 
B:-15------15--15(17)-15--|-----------15-13--13--13|-15(17)(17)-10----------| 
G:-----14-----------------|----------------14--14--|--------------12-10-12--| 
D:------------------------|------------------------|------------------------| 
A:------------------------|------------------------|------------------------| 
E:------------------------|------------------------|------------------------| 
 
 
      b ~ b   b   r         ~               b       b         b       b 
e:------------------------|---------------------10-|------------------------| 
B:------------------------|---------------10(10)---|--------------10------10| 
G:(12)(13)(13)(13)-10-----|-10------------12(14)---|(14)----12(14)--12(14)--| 
D:--------------------12--|------------------------|------------------------| 
A:------------------------|------------------------|------------------------| 
E:------------------------|------------------------|------------------------| 
  (slow bend) 
 
 
     b                                  b  r 
e:------------------------|------------------------|------------------------| 
B:-------10---------------|------------------------|-----------------13--13-| 
G:-12(14)-----------------|-----------12(14)12-10--|-10------10-------------| 
D:------------------------|----------------------12|-----12-----------------| 
A:------------------------|------------------------|------------------------| 
E:------------------------|------------------------|------------------------| 
   || 
 
 
     b         b         b 
e:-------------------------------------------------| 
B:-15-(17)---15-(17)---15-(17)-15--13-----13----13-| 
G:-------------------------------------14----14----|    
D:-------------------------------------------------| 
A:-------------------------------------------------| 
E:-------------------------------------------------| 
 

		  

Full key step upFull key step up
Half key step upHalf key step up
Half key step downHalf key step down
Full key step downFull key step down
hide glossary

See also:

tabs The Beatles - Yesterday tabs Eagles - Take It Easy tabs Eric Clapton - Tears In Heaven (ver. 3) tabs Deep Purple - Smoke On The Water tabs Deep Purple - Highway Star tabs The Shadows - Apache
e-chords

Other versions:

tabs Iron Butterfly - IronButterfly-in A Gadda Da Vida
auto scroll beats size up size down change color hide chords drawings
tab show chords e-chords YouTube Clip e-chords hide all tabs e-chords go to top tab

share