Iron And Wine

Flightless Bird American Mouth (acoustic)

Iron And Wine

tabs

by  TARIKIKE

save to print version add songbook text version e-mail correct tuner
chordsukulelecavacokeyboardtabbassdrumsharmonicaflute Guitar Pro
close

there isn't a video lesson for this song

chords

Flightless Bird American Mouth (acoustic)

	  		

Tuning: Dropped D (DADGBe) 

e|--------|--0-----0-----0-----0-----|-------------------------| 
B|--0-2-3-|----------------------3-2-|-2-----2-----2-----2-----| 
G|--------|------2-----2-----2-------|---------------------4-2-| 
D|--------|----2-----2-----2---------|-----4-----4-----4-------| 
A|--------|--0-----0-----0-----0-----|---4-----4-----4---------| 
D|--------|--------------------------|-4-----4-----4-----4-----| 

e|--------------------------|-------------------------| 
B|----------------------0-2-|-0-----0-----0-----0-2-3-| 
G|--2-----2-----2-----2-----|-------------------------| 
D|------0-----0-----0-------|-----2-----2-------------| 
A|----0-----0-----0---------|---2-----2---------------| 
D|--0-----0-----0-----0-----|-2-----2-----2-----------| 

e|--0-----0-----0-----0-----|-------------------------| 
B|----------------------3-2-|-2-----2-----2-----2-----| 
G|------2-----2-----2-------|---------------------4-2-| 
D|----2-----2-----2---------|-----4-----4-----4-------| 
A|--0-----0-----0-----0-----|---4-----4-----4---------| 
D|--------------------------|-4-----4-----4-----4-----| 

e|--------------------------|-------------------------| 
B|----------------------0-2-|-0-----0-----0-----------| 
G|--2-----2-----2-----2-----|-------------------------| 
D|------0-----0-----0-------|-----2-----2---------2-2-| 
A|----0-----0-----0---------|---2-----2---------------| 
D|--0-----0-----0-----0-----|-2-----2-----2-----------| 

e|--------------------------|-------------------------| 
B|--0-----2-----------------|-0-----2-----------------| 
G|------2-----2-----2-----2-|-------------4-2---------| 
D|----2-----2-----2-----2---|-----4-----4-----4-----4-| 
A|--0-----0-----0-----0-----|---4-----4-----4-----4---| 
D|--------------------------|-4-----4-----4-----4-----| 

e|--------------------------|-------------------------| 
B|--------------------------|-------------------0-----| 
G|--------2-----------------|-1-----------2-----------| 
D|--4---------0-----0-----0-|-----2-----2-----2-----2-| 
A|----0-5---0-----0-----0---|---2-----2-----2-----2---| 
D|--0-----0-----0-----0-----|-2-----2-----2-----2-----| 

e|--------------------------|-------------------------| 
B|--0-----2-----------------|-0-----2-----------------| 
G|------2-----2-----2-----2-|-------------4-2---------| 
D|----2-----2-----2-----2---|-----4-----4-----4-----4-| 
A|--0-----0-----0-----0-----|---4-----4-----4-----4---| 
D|--------------------------|-4-----4-----4-----4-----| 

e|--------------------------|-------------------------| 
B|--------------------------|-------------------0-2-3-| 
G|--------2-----------------|-1-----------2-----------| 
D|--4---------0-----0-----0-|-----2-----2-----2-------| 
A|----0-5---0-----0-----0---|---2-----2-----2---------| 
D|--0-----0-----0-----0-----|-2-----2-----2-----2-----| 

e|--0-----0-----0-----0-----|-------------------------| 
B|----------------------3-2-|-2-----2-----2-----2-----| 
G|------2-----2-----2-------|---------------------4-2-| 
D|----2-----2-----2---------|-----4-----4-----4-------| 
A|--0-----0-----0-----0-----|---4-----4-----4---------| 
D|--------------------------|-4-----4-----4-----4-----| 

e|--------------------------|-------------------------| 
B|----------------------0-2-|-0-----0-----0-----0-2-3-| 
G|--2-----2-----2-----2-----|-------------------------| 
D|------0-----0-----0-------|-----2-----2-------------| 
A|----0-----0-----0---------|---2-----2---------------| 
D|--0-----0-----0-----0-----|-2-----2-----2-----------| 

e|--0-----0-----0-----0-----|-------------------------| 
B|----------------------3-2-|-2-----2-----2-----2-----| 
G|------2-----2-----2-------|---------------------4-2-| 
D|----2-----2-----2---------|-----4-----4-----4-------| 
A|--0-----0-----0-----0-----|---4-----4-----4---------| 
D|--------------------------|-4-----4-----4-----4-----| 

e|--------------------------|-------------------------| 
B|----------------------0-2-|-0-----0-----0-----------| 
G|--2-----2-----2-----2-----|-------------------------| 
D|------0-----0-----0-------|-----2-----2---------2-2-| 
A|----0-----0-----0---------|---2-----2---------------| 
D|--0-----0-----0-----0-----|-2-----2-----2-----------| 

e|--------------------------|-------------------------| 
B|--0-----2-----------------|-0-----2-----------------| 
G|------2-----2-----2-----2-|-------------4-2---------| 
D|----2-----2-----2-----2---|-----4-----4-----4-----4-| 
A|--0-----0-----0-----0-----|---4-----4-----4-----4---| 
D|--------------------------|-4-----4-----4-----4-----| 

e|--------------------------|-------------------------| 
B|--------------------------|-------------------0-----| 
G|--------2-----------------|-1-----------2-----------| 
D|--4---------0-----0-----0-|-----2-----2-----2-----2-| 
A|----0-5---0-----0-----0---|---2-----2-----2-----2---| 
D|--0-----0-----0-----0-----|-2-----2-----2-----2-----| 

e|--7-----9-----------------|-7-----9-----7-5---------| 
B|--------------------------|-------------------------| 
G|--------------------------|-------------------------| 
D|------7-----7-----7-----7-|-----4-----4-----4-----4-| 
A|----7-----7-----7-----7---|---4-----4-----4-----4---| 
D|--7-----7-----7-----7-----|-4-----4-----4-----4-----| 

e|--2-----5-----------------|-4-----------5-----7-9-10| 
B|--------------------------|-------------------------| 
G|--------------------------|-------------------------| 
D|------0-----0-----0-----0-|-----2-----2-------------| 
A|----0-----0-----0-----0---|---2-----2---------------| 
D|--0-----0-----0-----0-----|-2-----2-----2-----------| 

e|-12-----------------------|-------------------------| 
B|--------------------------|-------------------------| 
G|--------------------------|-------------------------| 
D|--------------------------|-------------------------| 
A|--0-----------------------|-------------------------| 
D|--------------------------|-------------------------| 
		  

Full key step upFull key step up
Half key step upHalf key step up
Half key step downHalf key step down
Full key step downFull key step down
hide glossary

See also:

tabs Ramshackle Glory - Any Place Growing Up tabs Iron And Wine - Caught In The Briars tabs Iron And Wine - Flightless Bird American Mouth (acoustic) tabs Iron And Wine - Passing Afternoon
e-chords

Other versions:

tabs Iron And Wine - Flightless Bird American Mouth (acoustic) tabs Iron & Wine - Flightless Bird, American Mouth
auto scroll beats size up size down change color hide chords drawings
tab show chords e-chords YouTube Clip e-chords hide all tabs e-chords go to top tab

share