Iron And Wine

Caught In The Briars

Iron And Wine

tabs

by  JESSGOMES

save to print version add songbook text version e-mail correct tuner
chordsukulelecavacokeyboardtabbassdrumsharmonicaflute Guitar Pro
close

there isn't a video lesson for this song

chords

Caught In The Briars

	  		


Part A: 
E|--2--4--4--2--0--2--4--------0-----------2--4--4--2--0--2--0--------0-----------| 
B|--------------------------------------------------------------------------------| 
G|-----------------------0-----------0--------------------------2-----------2-----| 
D|--2--4--4--2--0--2--4-----0-----------0--2--4--4--2--0--2--0-----0-----------0--| 
A|--------------------------------------------------------------------------------| 
E|-----------------------5--------5-----------------------------0--------0--------| 

Part B: 
E|-----------------------0--------------------------------0-----------| 
B|--0--2--4--5--0--------------------5--4--2--4--0--------------------| 
G|-----------------0-----------0--------------------2-----------2-----| 
D|--------------------0-----------0--------------------0-----------0--| 
A|--0--2--4--5--0--------------------5--4--2--4--0--------------------| 
E|-----------------5--------5-----------------------0--------0--------| 

Part C: 
E|-----------------------0--------------------------------0-----------| 
B|--0--2--4--5--0--------------------5--4--2--4--0--------------------| 
G|-----------------3-----------3--------------------2-----------2-----| 
D|--------------------0-----------0--------------------0-----------0--| 
A|--0--2--4--5--0--------------------5--4--2--4--0--------------------| 
E|-----------------5--------5-----------------------4--------4--------| 

Part D: 
E|-----------------------0--------------------------------0-----------| 
B|--0--2--4--5--0--------------------5--4--2--4--0--------------------| 
G|-----------------0-----------0--------------------2-----------2-----| 
D|--------------------0-----------0--------------------0-----------0--| 
A|--0--2--4--5--0--------------------5--4--2--4--0--------------------| 
E|-----------------2--------2-----------------------0--------0--------| 

Part E: 
E|--2--4--4--2--0--2--4--------0-----------2--4--4--2--0--2--0--------0-----------| 
B|--------------------------------------------------------------------------------| 
G|-----------------------3-----------3--------------------------2-----------2-----| 
D|--2--4--4--2--0--2--4-----0-----------0--2--4--4--2--0--2--0-----0-----------0--| 
A|--------------------------------------------------------------------------------| 
E|-----------------------5--------5-----------------------------4--------4--------| 

Part F: 
E|--2--4--4--2--0--2--4--------0-----------2--4--4--2--0--2--0--------0-----------| 
B|--------------------------------------------------------------------------------| 
G|-----------------------0-----------0--------------------------6-----------6-----| 
D|--2--4--4--2--0--2--4-----0-----------0--2--4--4--2--0--2--0-----0-----------0--| 
A|--------------------------------------------------------------------------------| 
E|-----------------------2--------2-----------------------------7--------7--------| 

Part G: 
E|--2--4--4--2--0--2--4--------0-----------2--4--4--2--0--2--0--------0-----------| 
B|--------------------------------------------------------------------------------| 
G|-----------------------0-----------0--------------------------2-----------2-----| 
D|--2--4--4--2--0--2--4-----0-----------0--2--4--4--2--0--2--0-----0-----------0--| 
A|--------------------------------------------------------------------------------| 
E|-----------------------2--------2-----------------------------0--------0--------| 
 
		  

auto scroll beats size up size down change color hide chords drawings
tab show chords e-chords YouTube Clip e-chords hide all tabs e-chords go to top tab

share