Ira!

Prisão das Ruas

Ira!

tabs

save to print version add songbook text version e-mail correct tuner
chordsukulelecavacokeyboardtabbassdrumsharmonicaflute Guitar Pro
close

there isn't a video lesson for this song

chords

Prisão das Ruas

	  		Ritmo: Balada 
 
{INTRODUÇÃO} 
 
Onde aparece o "x", abafe as cordas. 
Em "Am7", faça os arranjos de "3-2-3" com os dedos mindinho e anelar, mantendo-se 
em Am7  
 
 
 
   Am7/9    G7/9     F7/9     Em        Am7       G   Am7        G  D/F#  Em 
                                                                 |  |    / 
E|-----7--------5--------3--------3-2---0--3-2-3--3x--0--3-2-3---3--2--0--| 
B|-------------------------------0---3--1--1-1-1--3x--1--1-1-1---3--3--0--| 
G|---5---5----4---4----2---2----0-------0--0-0-0--0x--0--0-0-0---0--2--0--| 
D|--------------------------------------2--2-2-2--0x--2--2-2-2---0--4--2--| 
A|-7--------5--------3--------2-------------------2x-------------2--2--2--| 
E|----------------------------------------------3-3x----------3--3--2--0--| 
 
 
 
{RIFF 1} 
 
   Am7/9     G7/9     F7/9    Em 
E|-----7--------5--------3--------3-2--| 
B|-------------------------------0---3-| 
G|---5---5----4---4----2---2----0------| 
D|-------------------------------------| 
A|-7--------5--------3--------2--------| 
E|-------------------------------------| 
 
{RIFF 2} 
 
   Am7       G 
E|-0--3-2-3--3x--| 
B|-1--1-1-1--3x--| 
G|-0--0-0-0--0x--| 
D|-2--2-2-2--0x--| 
A|-----------2x--| 
E|---------3-3x--| 
 
{RIFF 3} 
 
   Am7        G  D/F#  Em 
              |  |    / 
E|-0--3-2-3---3--2--0--| 
B|-1--1-1-1---3--3--0--| 
G|-0--0-0-0---0--2--0--| 
D|-2--2-2-2---0--4--2--| 
A|------------2--2--2--| 
E|---------3--3--2--0--| 
 
 
{SOLO} 
 
E|---------------------------------------------------- 
B|---------------------------------------------------- 
G|---------------------------------------------------- 
D|---5-7-7-9-7-5-7-9-7-5-7-9-----5-7-9-7-5-7-9-7-5-7-- 
A|-7---------------------------7---------------------- 
E|---------------------------------------------------- 
 
E|---------------------------------------------------- 
B|---------------------------------------------------- 
G|---------------------------------------------------- 
D|-------------------------------------5-----5-7/9-5-- 
A|-5h7-5h7-5h7-5h7-5h7-5h7-5h7-5h7-5h7---5h7---------- 
E|---------------------------------------------------- 
 
E|------------5/7-7-5---7-5---------------------------| 
B|--------------------8-----8--5----------------------| 
G|---------7---------------------7-4------------------| 
D|-5-7/9-7---------------------------7-5--------------| 
A|---------------------------------------7-5----------| 
E|-------------------------------------------7-5------| 
 
 
{FINAL} 
 
E|---------|---------|---------|--------------------| 
B|---------|---------|---------|-------------3/5~~~-| 
G|---------|---------|-----0---|-----4h5p4-4--------| 
D|---------|---------|---2---2-|---4----------------| 
A|-7-------|-5-------|-3-------|-2------------------| 
E|---8-7-5-|---7-5-7-|---------|-------------0------| 
 
 
 
 
 
 
                    Bm                C 
Momentos silenciosos   foram aqueles 
                G                   {RIFF 2} {RIFF 3} 
Em que eu e você ficamos nos olhando           a sós 
                Bm                   C 
Momentos mágicos   onde eu esquecia 
             G               {RIFF 2} {RIFF 3} 
da realidade   da minha vida,           do meu dia-a-dia 
                     Bm                      C 
A paz do meu espírito   Em doses homeopáticas 
          A/C#                      D  
Podia ser mais, mas eu sei que é só isso 
     B/D# 
Eu insisto 
{RIFF 1}                           {RIFF 2} {RIFF 3} 
   Eu confesso...... Eu não presto           Mas existem 
                    Bm                C 
Momentos silenciosos   foram aqueles 
                G                  {RIFF 2} {RIFF 3} 
Em que eu e você ficamos nos amando        a sós 
                   Bm 
Seu rosto, seu sorriso 
         C                G            Am7 Gx    {RIFF 3} 
Sua pele, sua musicalidade me acalmavam        (doce ópio) 
                  Bm 
Na fila dos bancos 
                    C 
No trânsito confuso 
          A/C#                  D 
Ouvindo o rádio em qualquer estação 
     B/D#              {RIFF 1} 
Preparado para a prisão, das ruas 
               Am7 Gx {RIFF 3}             
Prisão das ruas                  (é isso aí) 
 
{SOLO} 
                  Bm 
Na fila dos bancos 
                    C 
No trânsito confuso 
          A/C#                  D 
Ouvindo o rádio em qualquer estação 
     B/D#              {RIFF 1} 
Preparado para a prisão, das ruas 
               Am7 Gx  {RIFF 3}             
Prisão das ruas 
 
{RIFF 1} 1x 
{RIFF 2} 2x 
{FINAL} 
 
 
 
 
João Paulo Brígido Tostes 
[email protected] 
 
 
_______________________________________________________ 
Contribuição: ([email protected]) 
		  

Full key step upFull key step up
Half key step upHalf key step up
Half key step downHalf key step down
Full key step downFull key step down
hide glossary

See also:

tabs Legião Urbana - O Teatro Dos Vampiros tabs Engenheiros do Hawaii - Pra ser sincero ( ver. 2) tabs Paralamas do Sucesso - Alagados tabs Legião Urbana - Faroeste Caboclo tabs Ira! - Envelheço na Cidade tabs Raimundos - Mulher de Fases
e-chords

Other versions:

tabs Ira! - Prisão das Ruas
auto scroll beats size up size down change color hide chords drawings
tab show chords e-chords YouTube Clip e-chords hide all tabs e-chords go to top tab

share