Ira!

Poço de Sensibilidade (Solo - Acustico Mtv)

Ira!

tabs Beginner beginner

by  WRICCE

save to print version add songbook text version e-mail correct tuner
chordsukulelecavacokeyboardtabbassdrumsharmonicaflute Guitar Pro
close

there isn't a video lesson for this song

chords

Poço de Sensibilidade (Solo - Acustico Mtv)

	  		 
 
E|-------3--5h7--5h7--5--3--5h7--555--------0--0--2--0h2----------------------------------------| 
B|--3h5-------------------------------3--5--0--0--3--3-3-----333--555--777--101010--1212--------| 
G|------------------------------------------0--0--2--2-2--0-------------------------------------| 
D|------------------------------------------2--2--0--0-0----------------------------------------| 
A|------------------------------------------2--2--0--0-0----------------------------------------|  
E|------------------------------------------0--0------------------------------------------------| 
 
E|--999--10-------------------------------------------------------------------------------------| 
B|-----------12--10--12--10--8--10--10--7--7h9--------------------------------------------------| 
G|----------------------------------------------------------------------------------------------| 
D|----------------------------------------------------------------------------------------------| 
A|----------------------------------------------------------------------------------------------|  
E|----------------------------------------------------------------------------------------------| 
 
 
CIFRADO POR DENIS BERTOLETI PACHECO...QUALQUER DUVIDA MANDE UM E-MAIL PARA [email protected] 

		  

See also:

tabs Cássia Eller - Malandragem tabs Engenheiros do Hawaii - Pra ser sincero- (solo intro) tabs Legião Urbana - Eduardo E Mônica tabs Engenheiros do Hawaii - Refrão de Bolero (Acústico MTV) tabs Legião Urbana - Geração Coca-Cola tabs Raimundos - Mulher de Fases
e-chords

Other versions:

tabs Ira! - Poço de Sensibilidade (Solo - Acustico Mtv) tabs Ira! - Poço de sensibilidade - solo (correto!!!!!!!)
auto scroll beats size up size down change color hide chords drawings
tab show chords e-chords YouTube Clip e-chords hide all tabs e-chords go to top tab

share