Ira!

Dias de Luta (Intro - Acustico Mtv)

Ira!

tabs Beginner beginner

by  WRICCE

save to print version add songbook text version e-mail correct tuner
chordsukulelecavacokeyboardtabbassdrumsharmonicaflute Guitar Pro
close

there isn't a video lesson for this song

chords

Dias de Luta (Intro - Acustico Mtv)

(Edgard Scandurra)

	  		 
E|------------0------------0--------------------------------------------------------------------|  
B|----------0------------1------------3----------0----------5s5----------0----------------------|  
G|--------2------------2------------2----------2----------2------------0------------------------|  
D|------2------------2------------2----------2----------2------------2--------------------------|  
A|----0------------0------------0----------0----------0------------2----------------------------|  
E|--0------------0------------0----------0----------0------------0------------------------------|  
 
 
E|--------------------------------------------------------3--1----------------------------------|  
B|----------------3----------1--0h1---------------1--0h1--------3--1--1--0h1--------------------|  
G|--------------0----------0----0-0--0h2--------2----2-2----------------------------------------|  
D|------------2----------2------2-2-----------2------2-2----------------------------------------|  
A|----------2----------2--------2-2---------0--------0-0----------------------------------------|  
E|--0--0--0----------0----------0-0-------0----------0-0----------------------------------------|  
 
 
E|--0--------5-----------------------------0--------------------0-----------------0-------------|  
B|-----0-----5--------0--------1--------3-----3--3s5----------0---0---0---------0---0---0--0----|  
G|-----------5------2--------2--------2---------------------0-------0---------0-------0----0----|  
D|----------------2--------2--------2---------------------2-----------------2--------------2----|  
A|--------0-----0--------0--------0---------------------2-----------------2---------------------|  
E|----------------------------------------------------0------------------0-----------------0----|  
 
 
E|----------------------------------------------------------------------------------------------|  
B|----------3--1--0h1h0---------------------0h1-------------------------------------------------|  
G|--------2--------------3--1--0h1h0------2-----------------------------------------------------|  
D|------2-------------------------------2-------------------------------------------------------|  
A|----0-------------------------------0---------------------------------------------------------|  
E|--0-------------------------------------------------------------------------------------------|  
 
 
CIFRADO POR DENIS BERTOLETI PACHECO...QUALQUER DUVIDA MANDE UM E-MAIL PARA [email protected] 

		  

See also:

tabs Engenheiros do Hawaii - Infinita Highway tabs B5 - Só mais uma vez tabs Rodox - Dia Quente tabs Legião Urbana - Há Tempos tabs Raul Seixas - Tente outra vez tabs Engenheiros do Hawaii - Pra ser sincero ( ver. 2)
e-chords

Other versions:

tabs Ira! - Dias de Luta (Intro - Acustico Mtv)
auto scroll beats size up size down change color hide chords drawings
tab show chords e-chords YouTube Clip e-chords hide all tabs e-chords go to top tab

share