iOTA

Triplespoon

iOTA

tabs Intermediate intermediate

save to print version add songbook text version e-mail correct tuner
chordsukulelecavacokeyboardtabbassdrumsharmonicaflute Guitar Pro
close

there isn't a video lesson for this song

chords

Triplespoon

	  		Tuning : GGDGBD 
 
Intro: 
  
       'I've   got a secret, I've   got a secret' 
D------------------------------------------ 
B------------------------------------------ 
G----12---------11---------10---------9---- 
D----12---------11---------10---------9---- 
G----12---------11---------10---------9---- 
G----12---------11---------10---------9---- 
  
     'I've    got a secreeeeeeet'  
D------------------------------------------ 
B------------------------------------------ 
G----8---------7---------6---------5------- 
D----8---------7---------6---------5------- 
G----8---------7---------6---------5------- 
G----8---------7---------6---------5------- 
  
D----3-3--3-3--3------------------------- 
B----3-4--3-4--3------------------------- 
G----3-3--3-3--3------------------------- 
D----3-5--3-5--3------------------------- 
G----3-3--3-3--3------------------------- 
G----3-3--3-3--3------------------------- 
  
Then the verse - 
  
              'Starts with a circle...' 
D---7-7-7---7-7-7---7-7-7---5-5-5---3-3-3--0--- 
B---7-8-7---7-8-7---7-8-7---5-6-5---3-4-3--0--- 
G---7-7-7---7-7-7---7-7-7---5-5-5---3-3-3--0--- 
D---7-9-7---7-9-7---7-9-7---5-7-5---3-5-3--0--- 
G---7-7-7---7-7-7---7-7-7---5-5-5---3-3-3--0--- 
G---7-7-7---7-7-7---7-7-7---5-5-5---3-3-3--0--- 
  
              '...and ends with a triangle...' 
D---7-7-7---7-7-7---7-7-7---5-5-5---3-3-3--0--- 
B---7-8-7---7-8-7---7-8-7---5-6-5---3-4-3--0--- 
G---7-7-7---7-7-7---7-7-7---5-5-5---3-3-3--0--- 
D---7-9-7---7-9-7---7-9-7---5-7-5---3-5-3--0--- 
G---7-7-7---7-7-7---7-7-7---5-5-5---3-3-3--0--- 
G---7-7-7---7-7-7---7-7-7---5-5-5---3-3-3--0--- 
  
And repeat until the chorus - 
  
             'We're not inno...' 
D---3-3--3-3--0----1--2--3---------------- 
B---3-4--3-4--0----1--2--3---------------- 
G---3-3--3-3--0----1--2--3---------------- 
D---3-5--3-5--0----1--2--3---------------- 
G---3-3--3-3--0----1--2--3---------------- 
G---3-3--3-3--0----1--2--3---------------- 
  
    '...cent...   ...we all started this' 
D---3-3--3-3--0----0---0-0-0-------------- 
B---3-4--3-4--0----6>--8-8-8-------------- 
G---3-3--3-3--0----0---0-0-0-------------- 
D---3-5--3-5--0----7>--9-9-9-------------- 
G---3-3--3-3--0----0---0-0-0-------------- 
G---3-3--3-3--0----0---0-0-0-------------- 
  
Alternate those two over and over for the chorus and at the end go back to the intro  
where it descends the neck... 
  
    'Its not my bed but I sleep in it...' 
D--------------------------------------- 
B--------------------------------------- 
G----12----------------------------11--- 
D----12----------------------------11--- 
G----12----------------------------11--- 
G----12----------------------------11--- 
  
    'Its not my bed but I sleep in it...' 
D--------------------------------------- 
B--------------------------------------- 
G---------------------------------10---- 
D---------------------------------10---- 
G---------------------------------10---- 
G---------------------------------10---- 
  
    'Its not my bed but I sleep in it...' 
D--------------------------------------- 
B--------------------------------------- 
G--------------------------9------------ 
D--------------------------9------------ 
G--------------------------9------------ 
G--------------------------9------------ 
  
And so on.  Just the same as the intro.  The rest of the song is covered above.  At the  
very end when he sings 'its not my bed' with one strum between each line, it sounds to me  
like just an open strum of all the strings - 
  
     'Its not my bed but I sleep in it...   ...its not...' 
D---0-----------------------------------0-------- 
B---0-----------------------------------0-------- 
G---0-----------------------------------0-------- 
D---0-----------------------------------0-------- 
G---0-----------------------------------0-------- 
G---0-----------------------------------0-------- 
  
Etc... 
  
Tabbed by Drew - [email protected] 
  
 
 

		  

See also:

tabs The Beautiful Girls - Blackbird tabs Joss Stone - Super Duper Love tabs INXS - Heaven Sent tabs Beaverloop - Funkywrench tabs Blackman Bertie - Favourite Jeans tabs Baby Animals - Don't Tell Me What To Do
e-chords

Other versions:

tabs iOTA - Triplespoon
auto scroll beats size up size down change color hide chords drawings
tab show chords e-chords YouTube Clip e-chords hide all tabs e-chords go to top tab

share