iOTA

Dirty Little Secret

iOTA

tabs

save to print version add songbook text version e-mail correct tuner
chordsukulelecavacokeyboardtabbassdrumsharmonicaflute Guitar Pro
close

there isn't a video lesson for this song

chords

Dirty Little Secret

	  		Tuning : Standard EADGBE 
  
Intro: 
  
E-------------------------------------------- 
B-------------------------------------------- 
G---------7---4---4---6-6-6-6-6-6-6---------- 
D---------x---x---0---0-0-0-0-0-0-0---------- 
A---------5---2---2---4-4-4-4-4-4-4---------- 
E-----0-----------3---5-5-5-5-5-5-5---------- 
  
E-------------------------------------------- 
B-------------------------------------------- 
G---------7---4-----4---6-6-6-6-6-6-6-------- 
D---------x---x-----0---0-0-0-0-0-0-0-------- 
A---------5---2-----2---4-4-4-4-4-4-4-------- 
E-----0----------0--3---5-5-5-5-5-5-5-------- 
  
On the fourth time it ends like this : 
  
E---------------------------------------------- 
B---------------------------------------------- 
G-------7--4-4---4---6-6-6-----------7------6-- 
D-------x--x-x---0---0-0-0--------------------- 
A-------5--2-2---2---4-4-4--------5------4----- 
E----0---------0-3---5-5-5-5>6--6------5------- 
  
The next bit is... 
  
	'but you left here with everything' 
E----------------------------------------------- 
B----------------------------------------------- 
G---------7---4------4-----6-6-6-6-6-6-6-----7-- 
D---------x---x------0-----0-0-0-0-0-0-0-----x-- 
A---------5---2------2-----4-4-4-4-4-4-4-----5-- 
E-----0-----------0--3-----5-5-5-5-5-5-5---0---- 
  
	'you neeeeeed	and here in the' 
E--------------------------------------------- 
B--------------------------------------------- 
G----------4-4--4-4---7-7---3-3--3-3---7-7---- 
D----------x-x--x-x---x-x---x-x--x-x---x-x---- 
A----------2-2--2-2---5-5---1-1--1-1---5-5---- 
E--------------------------------------------- 
  
   'night	  it seems so painfully obvious' 
E--------------------------------------------- 
B----x-x--x-x---------x-x--x-x---------------- 
G----2-2--2-2---7-7---2-2--2-2---7-7---------- 
D----2-2--2-2---x-x---2-2--2-2---x-x---------- 
A----0-0--0-0---5-5---0-0--0-0---5-5---------- 
E--------------------------------------------- 
  
And then repeat the above bit.  Then, after 'i'm not your gorgeous boy, and I'm not your one,  
your all' you play this - 
  
      'no not at all, no not at all-u-all-u-all'  
E----------------------------------------------- 
B----------------------------------------------- 
G---x--------------3-------------4-------------- 
D---2--------------4-------------5-------------- 
A---2--------------4-------------5-------------- 
E---0--------------2-------------3-------------- 
  
Then the quiet bit - play the notes with your thumb, nice and loud and let them ring - 
  
      'Nobody really knows because the doors were closed' 
E----------------------------- 
B----------------------------- 
G----------------------------- 
D----------------------------- 
A----------------------------- 
E---0~~~~~~------------------- 
  
  'the truth is quarter told and it looks like I pursued you' 
E----------------------------- 
B----------------------------- 
G----------------------------- 
D----------------------------- 
A---0~~~~~~------------------- 
E----------------------------- 
  
   'your friends swallowed the bait, I guess I'm second rate' 
E----------------------------- 
B----------------------------- 
G----------------------------- 
D----------------------------- 
A----------------------------- 
E---0~~~~~~------------------- 
  
   'i'm not your one, your all' 
E----------------------------- 
B----------------------------- 
G----------------------------- 
D----------------------------- 
A---0~~~~~~------------------- 
E----------------------------- 
  
   'just your dirty little secret' 
E------------------------------|---------- 
B------------------------------|---------- 
G------------------------------|---7--4---   
D------------------------------|---x--x--etc...  
A------------------------5-----|---5--2--- 
E----------0---3--5---7-----5~~|0--------- 
  
As usual, ain't going to repeat myself - you can figure out which bits get repeated from  
here on, I'll just skip right to the end - here is the final progression... 
  
E---------------------------------------------------- 
B---------------------------------------------------- 
G-------7--4-4---4---6-6-6-----------7----6-----9---- 
D-------x--x-x---0---0-0-0----------------0-----x---- 
A-------5--2-2---2---4-4-4--------5-------4-----7---- 
E----0---------0-3---5-5-5-5>6--6------6--5-----0---- 
  
Tabbed by Drew - [email protected] 
  
 
 

		  

See also:

tabs The Beautiful Girls - Blackbird tabs Joss Stone - Super Duper Love tabs INXS - Heaven Sent tabs Beaverloop - Funkywrench tabs Blackman Bertie - Favourite Jeans tabs Baby Animals - Don't Tell Me What To Do
e-chords

Other versions:

tabs Bon Jovi - Dirty little secret tabs iOTA - Dirty Little Secret tabs The All American Rejects - Dirty little secret tabs Bullet for my Valentine - Dirty Little Secret tabs Avril Lavigne - Dirty Little Secret tabs Pillar - Dirty Little Secret
auto scroll beats size up size down change color hide chords drawings
tab show chords e-chords YouTube Clip e-chords hide all tabs e-chords go to top tab

share