iOTA

Addicted

iOTA

tabs

save to print version add songbook text version e-mail correct tuner
chordsukulelecavacokeyboardtabbassdrumsharmonicaflute Guitar Pro
close

there isn't a video lesson for this song

chords

Addicted

	  		Tuning : Standard EADGBE 
  
  'I'm addicted to you                    I'm a moth' 
E---------------------------5-------------------5----- 
B---------------------------5-------------------5----- 
G---------------------------6-------------------6----- 
D---------------------------7-------------------7----- 
A--------------------------(7)-----------------(7)---- 
E-------------------5------(5)-------0h5-------(5)---- 
  
  'in your flame              just when something'  
E-------------------3-------------------3---------- 
B-------------------3-------------------3---------- 
G-------------------4-------------------4---------- 
D-------------------5-------------------5---------- 
A------------------(5)-----------------(5)--------- 
E-----------3------(3)------0h3--------(3)--------- 
  
And repeat until: 
  
       'drill my head and bleed my mind' 
E---0---------------------0---------------------- 
B---1---------------------3---------------------- 
G---0---------------------0---------------------- 
D---2---------------------4---------------------- 
A---3---------------------5---------------------- 
E---0---------------------x---------------------- 
 
Repeat chords until: 
 
     'it's a return of a cycle' 
E------------0-----------3--------- 
B------------1-----------3--------- 
G------------0-----------0--------- 
D------------2-----------0--------- 
A------------3-----------2--------- 
E------------0-----------3--------- 
  
Then on to verse two - the same as above, except this time after 'cycle' it goes to this - 
  
   'and the pain               sticks in my heart' 
E-------------------0-----------0------------------- 
B-------------------0-----------1------------------- 
G-------------------6-----------0------------------- 
D-------------------7-----------2------------------- 
A-------------------7-----------3------------------- 
E------------5------5-----------0------------------- 
  
   'like a sword of gold  from some arrogant prince' 
E-----------------------0-------------------------- 
B-----------------------0-------------------------- 
G-----------------------2-------------------------- 
D-----------------------3-------------------------- 
A-----------------------3-------------------------- 
E-----------1-----------1-------------------------- 
  
  'and the rain               is grinding its heels'  
E--------------------0------------0----------------- 
B--------------------0------------1----------------- 
G--------------------6------------0----------------- 
D--------------------7------------2----------------- 
A--------------------7------------3----------------- 
E-------------5------5------------0----------------- 
  
  'in my face and its putting me out like a cigarette' 
E----------0----------------------|------------------- 
B----------0----------------------|------------------- 
G----------2----------------------|------------------- 
D----------3----------------------|------------------- 
A----------3----------------------|------------------- 
E----------1----------------------|------------------- 
 
Stop strumming on 'out' 
  
**The Solo comes next - I've attempted it (or part of it anyway) at the end.  Scroll down  
if you want to give it a go... 
  
The only other bit that needs to be covered is the end.  After the last 'cigarette' it goes  
to this - 
  
  'And I'm addicted to you		 to you' 
E------------------------5---------------x---------- 
B------------------------5---------------x---------- 
G------------------------6---------------6---------- 
D------------------------7---------------7---------- 
A------------------------7---------------7---------- 
E------------------------5---------------4---------- 
  
   'to you    to you    to you    to you' 
E-------3---------x---------1---------0------------- 
B-------3---------x---------1---------0------------- 
G-------4---------4---------2---------1------------- 
D-------5---------5---------3---------2------------- 
A-------5---------5---------3---------2------------- 
E-------3---------2---------1---------0------------- 
  
   'you ow ow ow ow ow ow ow yeeeaaahh-eeeeeeeee' 
E-----------------------------0---------------------- 
B-----------------------------1---------------------- 
G-----------------------------2---------------------- 
D-----------------------------2---------------------- 
A-----------------------------0---------------------- 
E-----------------------------0---------------------- 
  
And that's that.  Now if you want to confuse the hell out of yourself, you can try and  
follow my interpretation of... 
  
 **The Solo** 
  
If you want to try the solo from the Little Carlos version of Addicted, I'll give you a  
head start... 
 
/ = slide up 
\ = slied down 
b = bend note 
h = hammer on 
p = pull off 
~ = vibrato 
  
  
E--------------------------------------- 
B------13--15--15b--13------------------ 
G--/14------------------14~~~~---------- 
D--------------------------------------- 
A--------------------------------------- 
E--------------------------------------- 
  
E--------------15b---------------------- 
B------13--15--15b--13------------------ 
G--/14-----------------14-12~~~~-------- 
D--------------------------------------- 
A--------------------------------------- 
E--------------------------------------- 
  
  
E--------------15b---------------------------- 
B------13--15--15b--13--13-15p13-------13-15-- 
G--/14----------------14---------14-14-------- 
D--------------------------------------------- 
A--------------------------------------------- 
E--------------------------------------------- 
  
E------15-17--17b--15--17-15~~~~----- 
B--/17------------------------------- 
G------------------------------------ 
D------------------------------------ 
A------------------------------------ 
E------------------------------------ 
  
E---17p15-17~----------------------------- 
B---------------17p15-17~---15p13-15~----- 
G----------------------------------------- 
D----------------------------------------- 
A----------------------------------------- 
E----------------------------------------- 
  
  
E-------------------------- 
B---13p12-13-12------------ 
G--------------14-12-14---- 
D-------------------------- 
A-------------------------- 
E-------------------------- 
  
That's as far as I got.  If anyone wants to try and complete it please jump right in! 
  
Tabbed by Drew - [email protected] 
		  

See also:

tabs The Beautiful Girls - Blackbird tabs Joss Stone - Super Duper Love tabs INXS - Heaven Sent tabs Beaverloop - Funkywrench tabs Blackman Bertie - Favourite Jeans tabs Baby Animals - Don't Tell Me What To Do
e-chords

Other versions:

tabs iOTA - Addicted tabs Simple Plan - Addicted tabs P.O.D. - Addicted tabs Megadeth - Addicted to Chaos tabs Alter Bridge - Addicted To Pain tabs The Wombats - Addicted To The Cure
auto scroll beats size up size down change color hide chords drawings
tab show chords e-chords YouTube Clip e-chords hide all tabs e-chords go to top tab

share