Into It Over It

The Shaking Of Leaves

Into It Over It

tabs

by  JOAOEWERTON

save to print version add songbook text version e-mail correct tuner
chordsukulelecavacokeyboardtabbassdrumsharmonicaflute Guitar Pro
close

there isn't a video lesson for this song

chords

The Shaking Of Leaves

	  		
Intro: x4 

e|--------------------------------------------------------------------------| 
B|--------0------3-------0---0----------------------------------------------| 
G|---------0-----0-------0---2p0--------------------------------------------| 
D|-----0h2---------------0---0----------------------------------------------| 
A|---0-------3--------------------------------------------------------------| 
E|-------------------3------------------------------------------------------| 

After the intro, the following is played throughout the rest of the song 

e|--------------------------------------------------------------------------| 
B|--------0------3-------0---0------------0------3-------0---0--------------| 
G|---------0-----0-------0---2p0-----------0-----0-------0---2p0------------| 
D|-----0h2---------------0---0---------0h2---------------0---0--------------| 
A|---0-------3-----------------------0-------3------------------------------| 
E|-------------------3-------------------------------3----------------------| 

e|--------------------------------------------------------------------------| 
B|--------0------3-------0---0------------0------3-------0---0--------------| 
G|---------0-----0-------0---2p0-----------0-----0-------0---2p0------------| 
D|-----0h2---------------0---0---------0h2---------------0---0--------------| 
A|---0-------3-------------------------------3------------------------------| 
E|-------------------3---------------0---------------3----------------------| 

For those of you who have a bass guitar as well 

The bass guitar comes in during the Chorus "Whoa, Whoa, Whoa" 

G|--------------------------------------------------------------------------| 
D|---1-------4-----------------------1-------4------------------------------| 
A|-------------------4-------------------------------4----------------------| 
E|--------------------------------------------------------------------------| 

G|--------------------------------------------------------------------------| 
D|---1-------4--------------------------------------------------------------| 
A|-------------------4---------------1---------------4----------------------| 
E|------------------------------------------2-------------------------------| 

At the end of the song when Evan sings "The New Haven Expose", the bass does 
not play (obviously), however, the bass comes in at the end of the bridge 
during "gunman was nineteen" with (below) 

G|--------------------------------------------------------------------------| 
D|--------------------------------------------------------------------------| 
A|-----------------------------------1---------------4----------------------| 
E|------------------------------------------2-------------------------------| 
 
		  

auto scroll beats size up size down change color hide chords drawings
tab show chords e-chords YouTube Clip e-chords hide all tabs e-chords go to top tab

share