Into It Over It

The Frames That Used To Greet Me

Into It Over It

tabs

by  LUCICAMARGO

save to print version add songbook text version e-mail correct tuner
chordsukulelecavacokeyboardtabbassdrumsharmonicaflute Guitar Pro
close

there isn't a video lesson for this song

chords

The Frames That Used To Greet Me

Written by Evan Thomas Weiss

	  		


Tuning: E, G#, B, E, G#, B 
nd fret (album recording) / 1st Fret (live version) 


INTRO 

e-----------------------------| 
B-----------------------------| 
G---------------0-----------0-| 
D-------------4-------0-------| 
A---5/7-3p0-3-------5-----7---| 
E-0---------------5-----7-----| x4 


verse 1 

"It's a problem that our choices choose the wrong ones..." 

e-----------------------------| 
B-----------------------------| 
G---------------0-----------0-| 
D-------------4-------0-------| 
A---5/7-3p0-3-------5-----7---| 
E-0---------------5-----7-----| x7 

e--------------------------------0-| 
B----------------------------------| 
G---------0h2/4------4p0-----------| 
D-----0h2----------------0---5h7---| 
A---1----------------------7-------| 
E-2----------------5---------------| 

e-----------------------------| 
B-----------------------------| 
G---------------0-----------0-| 
D-------------4-------0-------| 
A---5/7-3p0-3-------5-----7---| 
E-0---------------5-----7-----| x4 


verse 2 

"Your eyes seem to observe my room so neatly..." 

e-----------------------------| 
B-----------------------------| 
G---------------0-----------0-| 
D-------------4-------0-------| 
A---5/7-3p0-3-------5-----7---| 
E-0---------------5-----7-----| x7 

e--------------------------------0---------------------------------------| 
B------------------------------------0---------0------------------(12)---| 
G---------0h2/4------4p0---------------0-----0---------------(12)--------| 
D-----0h2----------------0---5h7---------0-12----------7/9h12------------| 
A---1----------------------7---------------------------------------------| 
E-2----------------5---------------9-------12------0-0-------------------| 

e-------------------(5)---(7)------| 
B-------------------(5)---(7)------| 
G---------0h2/4-----(5)---(7)------| 
D-----0h2-----------(5)---(7)------| The two bass notes before the rolled 
A---1------------------------------| harmonics here are easiest to play using 
E-2---------------5-----7----------| the thumb of your left hand. 
                     ^     ^ 

OUTRO 

"As you quietly let yourself out." 

e-----------------------------| 
B-----------------------------| 
G---------------0-----------0-| 
D-------------4-------0-------| 
A---5/7-3p0-3-------5-----7---| 
E-0---------------5-----7-----| x4 

The outro slows towards the end and the final chord to hold on is: 

e----- 
B----- 
G----- 
D-0--- 
A-3--- 
E-0--- 


Key: 

/  - Slide 
h  - Hammer on 
p  - Pull off 
() - Harmonic 
^  - Roll 
		  

Full key step upFull key step up
Half key step upHalf key step up
Half key step downHalf key step down
Full key step downFull key step down
auto scroll beats size up size down change color hide chords drawings
tab show chords e-chords YouTube Clip e-chords hide all tabs e-chords go to top tab

share