Into It Over It

New North-side Air

Into It Over It

tabs

by  VICTBORGES

save to print version add songbook text version e-mail correct tuner
chordsukulelecavacokeyboardtabbassdrumsharmonicaflute Guitar Pro
close

there isn't a video lesson for this song

chords

New North-side Air

	  		Riff 1 
E|----------------------| 
B|----------------------| 
G|-------------------0--| 
D|----------0-----------| 
A|-----5h7-----7/10-----| 
E|--0-------------------| 

Riff 2 
E|-------------------| 
B|----------------0--| 
G|----------0--------| 
D|-------------7-----| 
A|-----5h7-----------| 
E|--7----------------| 

Riff 3 
E|------------------0--| 
B|---------------------| 
G|----------0----------| 
D|-------------7/9-----| 
A|-----5h7-------------| 
E|--5------------------| 

Riff 4 
E|-----------------------------------| 
B|--------------------------------0--| 
G|---------------0----------0--------| 
D|----------0h2----------------7-----| 
A|-----0h1-------------5h7-----------| 
E|--2---------------7----------------| 

Riff 5 
E|----------------------------------------------------------------0--| 
B|--------------------------------0---------------0------------------| 
G|---------------0----------0----------------------------------------| 
D|----------0h2----------------7-------------5h7-------------7h9-----| 
A|-----0h1-------------5h7--------------5h7-------------7h8----------| 
E|--2---------------7----------------5---------------7---------------| 

Riff 6 
E|---------0-----0-----0----0----0----0--0--| 
B|---------0-----0-----0----0----0----0--0--| 
G|---------0-----0-----0----0----0----0--0--| 
D|---------0-----10----5----0----7----0--0--| 
A|--10h12--12----x-----x----5----x----0--7--| 
E|--0------0-----10----5----5----7----7--7--| 

Riff 7 
E|---------0-----0--------------------------------0--| 
B|---------0-----0----------------0------------------| 
G|---------0-----0-----------------------------------| 
D|---------0-----10----------5h7-------------7h9-----| 
A|--10h12--12----x------5h7-------------7h8----------| 
E|--0------0-----10--5---------------7---------------| 


Riff 8 
E|--------------------5p0--7--x-----| 
B|--2------5p0-------------7--x--7--| 
G|--x-----------5--7-------0--x--7--| 
D|--2----------------------0--x--0--| 
A|--x----------------------x--x--x--| 
E|--2------5-------0-------7--x--7--| 

Bridge Chords 
Chord 1 - 0-3-0-0-3-0-| 
Chord 2 - 0-0-2-0-0-0-| 
Chord 3 - 4-4-2-0-0-0-| 
Chord 4 - 5-x-5-5-0-0-| 
Chord 5 - 5-x-5-4-0-0-| 
Chord 6 - 7-x-7-7-0-0-| 
Chord 7 - 7-x-0-7-7-0-| 


Riff 9 
E|-------------------------------0--0--x--0---x--0--x--0---x--| 
B|---------------0------------------0--x--0---x--0--x--0---x--| 
G|----------------------------------0--x--0---x--0--x--0---x--| 
D|----------5h7-------------7h9-----8--x--10--x--0--x--0---x--| 
A|-----5h7-------------7h8----------8--x--10--x--8--x--10--x--| 
E|--5---------------7---------------8--x--10--x--9--x--11--x--| 

Riff 10 
E|----------------0-------| 
B|------------------------| 
G|----------0-------------| 
D|-------------7----------| 
A|-----5h7----------------| 
E|--0------------------0--| 




Listen for the changes. In time with the lyrics, it?s close to this. 
Intro: 
        Riff 1 x12 
verse 1: 

1 
I laid down last year. Traded tobbaco for 
2 
New Northside Air. And filled up my lungs with our 
3 
home.                    Here I 
4 
go again. 


Break: Riff 1 x4 

verse 2: 
1 
That?s my problem with fear, always tossing and turning. 
2 
Hung up on aging but letting my age start to 
3 
show.            I?ve let myself 
4 
go again. 
1 
                    And here I 
5 
go again. 

Chorus: 
6 
Same by day, but at night I lay awake 
7 
Left to imagine your evenings in more desirable states. 
6 
You?ll be left to guess why the house is a mess, while I 
8 
wait.        Patiently irate and asking 


Bridge: 
 1               2 
?Hi, hello, how are you? 
 3     4   5    6    7 
Do I know your name?� 
 1 
Drained by day cause 
     2      3    4    5    6   7 
At night I lie awake with fate, 
          5    7 
Because fate, fate?s got the keys to this place. 

Break: 
Riff 1 x4 

verse 3: 
1 
I laid down my thoughts. Traded my steps for a 
1 
New Northside waltz. And paced through the rooms of our 
1 
home.                Here I 
9 
go again. 

Outro: 
1 
Here I go again. 
1 
Here I go again. 
1 
Here I go again. 
10 
Well, here I go. 
		  

auto scroll beats size up size down change color hide chords drawings
tab show chords e-chords YouTube Clip e-chords hide all tabs e-chords go to top tab

share