Into It Over It

Humboldt

Into It Over It

tabs

by  TARIKIKE

save to print version add songbook text version e-mail correct tuner
chordsukulelecavacokeyboardtabbassdrumsharmonicaflute Guitar Pro
close

there isn't a video lesson for this song

chords

Humboldt

Written by Into It. Over It.

	  		Verse: X4 

A#|---0-0--0-0--0--0--0--0----------------------------------------------------| 
F |---0-0--0-0--0--0--0--0----------------------------------------------------| 
D#|---7-0--7-0--7--7--7--7----------------------------------------------------| 
A#|---0-0--0-0--0--0--0--0----------------------------------------------------| 
G |---0h8--0h8--0--0--8--7----------------------------------------------------| 
D#|---0-0--0-0--9--0--0--7----------------------------------------------------| 

                ^-----^ these chords are really quick 

Chorus: X2 

A#|--0--0--0--0--0------------------------------------------------------------| 
F |--0--0--0--0--0------------------------------------------------------------| 
D#|--0--0--0--0--9------------------------------------------------------------| 
A#|--4--0--2--5--0------------------------------------------------------------| 
G |--3--3--0--3--0------------------------------------------------------------| 
D#|--2--0--0--0--7------------------------------------------------------------| 

Then 

Verse X2 
Chorus X2 

Bridge 1: X2 

A#|--0--0-----0--0------0------0--0--0--x--0--0--0---------------------------------------| 
F |--0--0-----0--0------0------0--0--0--x--0--0--0---------------------------------------| 
D#|--0--0-----0--0------0------7--9--7--x--7--9--7---------------------------------------| 
A#|--0--4p2p0-0--4p2p0--7h9h7--0--0--0--x--0--0--0---------------------------------------| 
G |--3--0-----3--0------0------0--0--0--x--0--0--0---------------------------------------| 
D#|--0--0-----0--0------0------7--7--0--x--5--5--5---------------------------------------| 

Bridge 2: X1 

A#|---0---0--0--0----0---0--0--0--0---0---0--12---0--0--0--0--0---0---0--0--4-------------| 
F |--12--12--7--9---12--12--7--0--0---0---0---0---0--0--0--0--0--12--12--7--5-------------| 
D#|--11--11--6--0---11--11--6--6--7--12\--7---0--11--6--7--9--7--11--11--6--0-------------| 
A#|---0---0--0--7----0---0--0--7--7-(14)--0--12--12--0--0--0--0---0---0--0--0-------------| 
G |---0---0--0--0----0---0--0--0--0---0---8---0---0--0--0--0--0---0---0--0--0-------------| 
D#|--12---0--7--0---12---0--7--0--0---0---0---0---0--7--7--9--9--12---0--7--5-------------| 

Bridge 3: X4 

A#|--0--0-----0--0------0------0--0-------------------------------| 
F |--0--0-----0--0------0------0--0-------------------------------| 
D#|--0--0-----0--0------0------7--7-------------------------------| 
A#|--0--4p2p0-0--4p2p0--7h9h7--0--0-------------------------------| 
G |--3--0-----3--0------0------8--7-------------------------------| 
D#|--0--0-----0--0------0------0--0- 

Ending 

A#|--0-0--0-0--0-0--0-0--0-0--------------------------------------------------| 
F |--0-0--0-0--0-0--0-0--0-0--------------------------------------------------| 
D#|--7-7--7-7--7-7--7-7--0-0--------------------------------------------------| 
A#|--0-0--0-0--0-0--0-0--4-0--------------------------------------------------| 
G |--0-8--0-8--0-0--0-7--3-3--------------------------------------------------| 
D#|--0-0--0-0--9-0--0-7--2-0--------------------------------------------------|  
		  

auto scroll beats size up size down change color hide chords drawings
tab show chords e-chords YouTube Clip e-chords hide all tabs e-chords go to top tab

share