Institute

The Heat Of Your Love

Institute

tabs

by  JUNIOR KAMIKAZE

save to print version add songbook text version e-mail correct tuner
chordsukulelecavacokeyboardtabbassdrumsharmonicaflute Guitar Pro
close

there isn't a video lesson for this song

chords

The Heat Of Your Love

	  		BANDA: INSTITUTE 
MÚSICA: "THE HEAT OF YOUR LOVE" 
 
 
NOTAS: Há duas guitarras nesta música, e não estão na afinação padrão,  
porém essa tablatura - ao menos na minha opinião - está bem 'convertida'  
e arranjada para apenas uma guitarra. 
 
Intro: 
E||---------------------------------------------------------|| 
B||---------------------------------------------------------|| 
G||---------------------------------------------------------|| 
D||-0-0-4-0-6-0-0-4-0-6-0-11-9--0-0-4-0-6-0-0-4-0-6-0-11-9--|| 
A||---------------------------------------------------------|| 
E||---------------------------------------------------------|| 
 
 
 
Versos: 
    (Não é necessário tocar as duas primeiras cordas) 
     (F#)  (G#) (F#)  (G#)  
E||-------------------------------------------------------|| 
B||-------------------------------------------------------|| 
G||--3-3-3--5---3-3-3--5----------------------------------|| 
D||--4-4-4--6---4-4-4--6----------------------------------|| 
A||--4-4-4--6---4-4-4--6----------------------------------|| 
E||--2-2-2--4---2-2-2--4----------------------------------|| 
 
 
Solo: 
E||-12h13------------------------------12h13---------------------------|| 
B||------14---------------------------------14-------------------------|| 
G||--------------------------------------------------------------------|| 
D||------------10h12-12---------------------------10h12-12-------------|| 
A||---------------------10-12-12-12-----------------------10-12-12-12--|| 
E||--------------------------------------------------------------------|| 
                                                                              (gradual bends)  
E||-----------------------------14-16-16-16------------------------------14-16-16-16b18--|| 
B||-14-14-14-16--16-14-14-14-16--------------14-14-14-16--16-14-14-14-16-----------------|| 
G||--------------------------------------------------------------------------------------|| 
D||--------------------------------------------------------------------------------------|| 
A||--------------------------------------------------------------------------------------|| 
E||--------------------------------------------------------------------------------------|| 
 
 
 
 
 
In the way you state you fellings  
No matter the cost  
how you separate all the cliche s  
still you get so lost  
 
but i wish i was wrong  
wish i was worng  
theres never been anyone like you for me  
theres never been anyone like you for me  
way down,  
way down in the heat of your love  
Im my best side  
deep fried in the heat of your love  
 
I been waiting impatiently  
searching dead lands  
you've been gone for days now  
to the temperary monkey sima  
 
but i wish i was wrong  
wish i was worng  
theres never been anyone like you for me  
theres never been anyone like you for me  
way down,  
way down in the heat of your love  
Im my best side  
deep fried in the heat of your love  
 
in the way you state you fellings  
no matter the cost  
for the time you were beyound perfection  
no matter  
 
way down,  
way down in the heat of your love  
Im my best side  
deep fried in the heat of your love  
as fast as you can  
deep fried in the heat of your love  
in the heat of your love  
 
We're so stupid, oh so stupid  
way me down in the heat of your love  
We're so stupid, oh so stupid  
way me down in the heat of your love 

		  

Full key step upFull key step up
Half key step upHalf key step up
Half key step downHalf key step down
Full key step downFull key step down
auto scroll beats size up size down change color hide chords drawings
tab show chords e-chords YouTube Clip e-chords hide all tabs e-chords go to top tab

share