Inme

Energy (ver. 5)

Inme

tabs

save to print version add songbook text version e-mail correct tuner
chordsukulelecavacokeyboardtabbassdrumsharmonicaflute Guitar Pro
close

there isn't a video lesson for this song

chords

Energy (ver. 5)

	  		Intro 
E|-------------------------------------|| 
B|----------------------------4444446--|| 
G|-------------------------------------|| 
D|-55-55-55-55-55-55-33-33-33----------|| 
A|-55-55-55-55-55-55-33-33-33----------|| 
D|-55-55-55-55-55-55-33-33-33----------|| 
 Pm_____    _____    _____ 
 
E|-------------------------------------|| 
B|----------------------------6666664--|| 
G|-------------------------------------|| 
D|-55-55-55-55-55-55-33-33-33----------|| 
A|-55-55-55-55-55-55-33-33-33----------|| 
D|-55-55-55-55-55-55-33-33-33----------|| 
 Pm_____    _____    _____ 
 
Verse 
Played with phaser 
E|-------------------------------------|| 
B|-------------------------------------|| 
G|-------------------------------------|| 
D|-----8-------8-------10-------10-----|| 
A|---6---6---6---6---8----8---8----8---|| 
D|-6-------6-------8--------8----------|| 
 
E|-------------------------------------|| 
B|-------------------------------------|| 
G|-------------------------------------|| 
D|-----0-------0-------7-------7-------|| 
A|---0---0---0---0---7---7---7---7-----|| 
D|-0-------0-------7-------7-----------|| 
 
Bridge 
E|-------------|| 
B|-------------|| 
G|-------------|| 
D|-3-3-3-33333-|| 
A|-3-3-3-33333-|| 
D|-3-3-3-33333-|| 
Pm____________ 
 
Chorus 
You can hear phaser if you listen hard enough but its optional. 
E|--------------------------------------| 
B|--------------------------------------| 
G|--------------------------------------| 
D|-77777777--55555555--3333333333333333-| 
A|-77777777--55555555--3333333333333333-| 
D|-77777777--55555555--3333333333333333-| 
 
Interlude 
This is where Dave sings "Take me home..." 
E|--------------------------------------| 
B|--------------------------------------| 
G|-55555555--77777777--8888888888888888-| 
D|-55555555--77777777--8888888888888888-| 
A|-33333333--55555555--6666666666666666-| 
D|--------------------------------------| 
 
 
This is the outro, played with phaser 
E|-------------------------------------|| 
B|-------------------------------------|| 
G|-11-11-11-11-9-9-9-7-7-7-5-5-5-------|| 
D|-------------------------------------|| 
A|-------------------------------------||  
D|-------------------------------------||  
 
After a few times it goes to this once 
E|-------------------------------------|| 
B|-11-11-11-11-9-9-9-7-7-7-5-5-5-------|| 
G|-------------------------------------|| 
D|-------------------------------------|| 
A|-------------------------------------|| 
D|-------------------------------------|| 
 
End with 
E|-------------------------------------|| 
B|-------------------------------------|| 
G|-------------------------------------|| 
D|-7-7-7-7-7-7-7-7---------------------|| 
A|-7-7-7-7-7-7-7-7---------------------|| 
D|-7-7-7-7-7-7-7-7---------------------|| 
 
 
 
Order: 
Intro 
Verse 
Bridge 
Chorus 
Verse 
Bridge 
Chorus  
Interlude 
Chorus 
Outro 
 

		  

auto scroll beats size up size down change color hide chords drawings
tab show chords e-chords YouTube Clip e-chords hide all tabs e-chords go to top tab

share