Incursion

Afterglow

Incursion

tabs

save to print version add songbook text version e-mail correct tuner
chordsukulelecavacokeyboardtabbassdrumsharmonicaflute Guitar Pro
close

there isn't a video lesson for this song

chords

Afterglow

	  		Afterglow by Incursion 
 
Transcribed by Paul Stipack ([email protected]) 
 
INTRO RIFF: 
E-|-------------------------------|- 
B-|-------------------------------|- 
G-|---2---2h3p2-0------0h2p0----0-|- 
D-|-0---0------------0--------0---|- 
A-|----------------1--------2-----|- 
E-|-------------------------------|- 
 
VERSE RIFF: 
E-|-------------------------------|-----------------|- 
B-|-------------------------------|-2-2-2-2---------|- 
G-|---2---2h3p2-0------0h2p0----0-|-3-3-3-3--3-3--0-|- 
D-|-0---0------------0--------0---|-0-0-0-0--3-3--0-|- 
A-|----------------1--------2-----|----------1-1--2-|- 
E-|-------------------------------|---------------3-|- 
 
CHORUS CHORDS: 
E-|-------------------------------|- 
B-|-------------------------------|- 
G-|-5-5---------------------------|- 
D-|-5-5--5-5-5/8-8-8--3-3-3---8-8-|- 
A-|-3-3--5-5-5/8-8-8--3-3-3---8-8-|- 
E-|------3-3-3/6-6-6--1-1-1---6-6-|- 
 
SOLO IS LAYED OVER THIS RIFF: 
E-|-------------------------------|- 
B-|-------------------------------|- 
G-|---2---2h3p2-0------0h2p0----0-|- 
D-|-0---0------------0--------0---|- 
A-|----------------1--------2-----|- 
E-|-------------------------------|- 
 
 

		  

See also:

tabs The Beautiful Girls - Blackbird tabs Joss Stone - Super Duper Love tabs INXS - Heaven Sent tabs Beaverloop - Funkywrench tabs Blackman Bertie - Favourite Jeans tabs Baby Animals - Don't Tell Me What To Do
e-chords

Other versions:

tabs Incursion - Afterglow tabs Taxiride - Afterglow tabs Travis - Afterglow tabs Quiet Riot - Afterglow tabs Nine Lashes - Afterglow
auto scroll beats size up size down change color hide chords drawings
tab show chords e-chords YouTube Clip e-chords hide all tabs e-chords go to top tab

share