Incursion

Absent Idol

Incursion

tabs

save to print version add songbook text version e-mail correct tuner
chordsukulelecavacokeyboardtabbassdrumsharmonicaflute Guitar Pro
close

there isn't a video lesson for this song

chords

Absent Idol

	  		Transcribed by Paul Stipack ([email protected]) 
 
Drop D tuning. I'll just tab out the main progressions, to get the 
timing and structure correct, just play along with the song. 
 
VERSE: 
E-|----------------------------------|- 
B-|----------------------------------|- 
G-|----------------------------------|- 
D-|-5-5--5-5-5-5--5-5-5-5--3---6-(5)-|- 
A-|-5-5--5-5-5-5--5-5-5-5--3---6-(5)-|- 
D-|-5-5--5-5-5-5--5-5-5-5--3---6-(5)-|- 
 
CHORUS: 
E-|--------------------|-------------|- 
B-|--------------------|-------------|- 
G-|-5-5--7-7--8-8--7-7-|----8-8--7-7-|- 
D-|-5-5--7-7--8-8--7-7-|-5--8-8--7-7-|- 
A-|-3-3--5-5--6-6--5-5-|-5--6-6--5-5-|- 
D-|--------------------|-5-----------|- 
 
BRIDGE:(just use these chords and pluck a few notes out of them) 
E-|---------|- 
B-|---------|- 
G-|--7---5--|- 
D-|--5---3--|- 
A-|--5---3--|- 
D-|--5---3--|- 
 
OUTRO: 
E-|------------------|- 
B-|------------------|- 
G-|------------------|- 
D-|-5-5-5-3--5-5-5-3-|-(etc) 
A-|-5-5-5-3--5-5-5-3-|- 
D-|-5-5-5-3--5-5-5-3-|- 
		  

Full key step upFull key step up
Half key step upHalf key step up
Half key step downHalf key step down
Full key step downFull key step down
hide glossary

See also:

tabs Beaverloop - Condesending tabs Baby Animals - One Word tabs The Beautiful Girls - Morning Sun tabs Hillsong Music Australia - jesus I long tabs Hillsong Music Australia - Song of Freedom tabs INXS - Need you tonight
e-chords

Other versions:

tabs Incursion - Absent Idol
auto scroll beats size up size down change color hide chords drawings
tab show chords e-chords YouTube Clip e-chords hide all tabs e-chords go to top tab

share