Incubus

home > Incubus

Take Me To Your Leader (ver. 2) Tab

Incubus

Difficulty: nolevelnolevel

tuner correct add songbook print version text version save to e-mail
chordsukulelecavacokeyboardtabbassdrumsharmonicsflute Guitar Pro
chords

Take Me To Your Leader (ver. 2)

  		Tabbed by Collin Scott 
([email protected]) 
 
It might just be me, but I think this is a pretty hard song to play. A lot of fast picking and cramming fingers together. 
If you want, you can tune drop D, it makes the chorus a hell of a lot easier, but I tabbed this song in standard tuning. 
 
 
Intro: 
E|-------- 
B|-------- 
G|--7--7-- 
D|-(0)(0)- 
A|-------- 
E|-------- 
  (The 0's can be added for effect) 
 
Main Riff: 
E|----------7-7---------7------- 
B|--0-0-6-6-----0-0-6-6--------- 
G|------------------------7-7--- 
D|------------------------------ 
A|------------------------------ 
E|------------------------------ 
 
4th time play G|--8-7-- at end 
 
 
Eventually, it kinda falls apart and he just plays something like this: 
 
E|------7------7----7---7--7--7/15--- 
B|--0-6----0-6----06--06---6--6/----- 
G|----------------------------------- 
D|----------------------------------- 
A|----------------------------------- 
E|----------------------------------- 
 
 
Inbetween part: 
E|---15-14-13-12-----------------------15- 
B|---------------15-14-13-12-------------- 
G|---------------------------15-14-13----- 
D|---------------------------------------- 
A|---------------------------------------- 
E|---------------------------------------- 
 
Prechorus: 
E|------------- 
B|------------- 
G|--7--6--5--6- 
D|--7--6--5--6- 
A|--5--4--3--4- 
E|------------- 
 
Chorus: 
E|-------------------------------------------- 
B|-------------------------------------------- 
G|--5\4-4--5\4-4--5\4---5\4-4--5\4-4--7-7-7-7- 
D|--5\4-4--5\4-4--5\4---5\4-4--5\4-4--7-7-7-7- 
A|--3\2-2--3\2-2--3\2---3\2-2--3\2-2--5-5-5-5- 
E|-------------------------------------------- 
 
"Take Me To Your Leader" Part: (not too sure on this) 
E|--7----------------------- 
B|----0-6-7----------------- 
G|----------0-6-7-0-7-0-8-0- 
D|-------------------------- 
A|-------------------------- 
E|-------------------------- 
 
The "Pain" part: 
E|---------- 
B|---------- 
G|--4-4-6-7- 
D|--4-4-6-7- 
A|--2-2-4-5- 
E|---------- 
 
The Smooth Jazzy part: 
E|--------------------------5---- 
B|--------------------------5--6- 
G|-----4--4-2-1-2p1-----4------6- 
D|------------------------------- 
A|--2-----------------2---------- 
E|------------------------------- 
 

	  

Full key step upFull key step up
Half key step upHalf key step up
Half key step downHalf key step down
Full key step downFull key step down
Search Paypal
auto scroll beats size up size down change color hide chords drawings
tab show chords e-chords YouTube Clip e-chords hide all tabs e-chords go to top tab