Incubus

home > Incubus

Beware Criminal Tab

Incubus

Difficulty: nolevelnolevel

by Nick+D

tuner correct add songbook print version text version save to e-mail
chordsukulelecavacokeyboardtabbassdrumsharmonicsflute Guitar Pro
chords

Beware Criminal

  		Tuning: Standard 

e|-------| 
B|-------| 
G|-6-6-6-| 
D|-6-6-6-| 
A|-4-4-4-| 
E|-------| 

Intro/Verse 
e|-------------------------------------------------------------| 
B|-7-----7---7-------7-------------7-----7---7-------7---------| 
G|-----------------6-----6-6-6---------------------6-----------| 
D|-----4-----------------6-6-6---------4-----------------7-7-7-| 
A|-------------4---------4-4-4-----------------4---------7-7-7-| 
E|-------------------------------------------------------5-5-5-| 

Middle & end of verse 
e|-------------------------------------------------------------------| 
B|-7-----7---7-------7-------------7-----7---7-------7-7-------------| 
G|-----------------6-----6-6-6---------------------6-6-6-6-6---------| 
D|-----4-----------------6-6-6---------4-------------4-4-6-6-7-7-2-2-| 
A|-------------4---------4-4-4-----------------4---------4-4-7-7-2-2-| 
E|-----------------------------------------------------------5-5-0-0-| 

Chorus 
e|-----------------------------------------------------------------| 
B|-----------------6---6-6---6-6-----------------------------------| 
G|-6---6-6---6-6---------------------------------------------------| 
D|-7---7-7---7-7---6---6-6---6-6---4---4---4-4---3---3-3---3---3---| 
A|-7---7-7---7-7---4---4-4---4-4---4---4---4-4---3---3-3---3---3---| 
E|-5---5-5---5-5-------------------2-0-2-0-2-2-0-1-0-1-1-0-1-0-1-0-| 

e|-----------------------------------------------------------------| 
B|-----------------6---x-6---6-6-----------------------------------| 
G|-----------------------------------------------------------------| 
D|-7---x-7---7-7---6---x-6---6-6---4---x-4---4-4---3-3-3-3-2-2-2-2-| 
A|-7---x-7---7-7---4---x-4---4-4---4---x-4---4-4---3-3-3-3-2-2-2-2-| 
E|-5---x-5---5-5-------------------2---x-2---2-2---1-1-1-1-0-0-0-0-| 

e|-------------------------------------------------------0---0-0-| 
B|-------------------------------------------------------2---2-2-| 
G|-----------------5---x-5---5-5---6---x-6---6-6---2---x-2---2-2-| 
D|-7---x-7---7-7---6---x-6---6-6---6---x-6---6-6---2---x-2---2-2-| 
A|-7---x-7---7-7---6---x-6---6-6---4---x-4---4-4---0---x-0---0-0-| 
E|-5---x-5---5-5---4---x-4---4-4---4---x-4---4-4-----------------| 

e|-------0---0-0---------------------------------------------0-0--0-| 
B|-------0---0-0-------------------7-------------------------5-5-b5-| 
G|-------1---1-1---7---x-7---7-7---6--------------------------------| 
D|-2---x-2---2-2---7---x-7---7-7---4--------------------------------| 
A|-2---x-2---2-2---5---x-5---5-5------------------------------------| 
E|-0---x-0---0-0----------------------------------------------------| 

Bridge: Accompanied by strange guitar noises 
e|---------------------------------| 
B|---------------------------------| 
G|---------------------------------| 
D|---------------------------------| 
A|-----4-------4-------4-------4---| 
E|-2-----0---0---0-2-----0---0---0-| 

Last Chorus-clean guitar 
e|---------------------------------------------------------------| 
B|---------------------------6-----------------------------------| 
G|-----------6-----------4---------------3---------------2-------| 
D|-------7-------------6---------------------4---------------3---| 
A|-----7-----------4---------------------------------------------| 
E|-5-------------------------------2---------------1-------------| 

Electric guitar fades and acoustic comes in 
e|-------------------| 
B|-----------------6-| 
G|-6---------------4-| 
D|-7---------------6-| 
A|-7---------------4-| 
E|-5-----------------| 

Distorted electric 
e|---------------------------------| 
B|---------------------------------| 
G|---------------------------------| 
D|-4-x-4-x-4-x-4-x-3-x-3-x-2-x-2-x-| 
A|-4-x-4-x-4-x-4-x-3-x-3-x-2-x-2-x-| 
E|-2-x-2-x-2-x-2-x-1-x-1-x-0-x-0-x-| 

e|-------------------------------------------------------0---0-0-| 
B|-------------------------------------------------------2---2-2-| 
G|-----------------5---x-5---5-5---6---x-6---6-6---2---x-2---2-2-| 
D|-7---x-7---7-7---6---x-6---6-6---6---x-6---6-6---2---x-2---2-2-| 
A|-7---x-7---7-7---6---x-6---6-6---4---x-4---4-4---0---x-0---0-0-| 
E|-5---x-5---5-5---4---x-4---4-4---4---x-4---4-4-----------------| 

e|-------0---0-0---------------------------------------------0-0--0-| 
B|-------0---0-0-------------------7-------------------------5-5-b5-| 
G|-------1---1-1---7---x-7---7-7---6--------------------------------| 
D|-2---x-2---2-2---7---x-7---7-7---4--------------------------------| 
A|-2---x-2---2-2---5---x-5---5-5------------------------------------| 
E|-0---x-0---0-0----------------------------------------------------| 

| /  slide up 
| \  slide down 
| h  hammer-on 
| p  pull-off 
| ~  vibrato 
| +  harmonic 
| x  Mute note 
| b  Bend note 


	  

Search Paypal
auto scroll beats size up size down change color hide chords drawings
tab show chords e-chords YouTube Clip e-chords hide all tabs e-chords go to top tab