Imelda May

home > Imelda May

Johnny Got A Boom Boom Tab

Imelda May

Difficulty: ExpertExpert

by abelamin

tuner correct add songbook print version text version save to e-mail
chordsukulelecavacokeyboardtabbassdrumsharmonicsflute Guitar Pro
chords

Johnny Got A Boom Boom

  		Intro: Riff 1x limpo, depois 4x Palm muted 
 
E|-----------------------------------------------------------------------------| 
B|-----------------------------------------------------------------------------| 
G|-----------------------------------------------------------------------------| 
D|-----------------------------------------------------------------------------| 
A|----------3---6-7------3-----------------------------------------------------| 
E|--0w----5---5--------5---5-3-4-----------------------------------------------| 
 


Refrão: "johnny got a boom boom" 

 
E|------1212-------1212------------------------------12\---------------------| 
B|------1212-------1212------------------------------12\---------------------| 
G|------1212-------1212------------------------------12\---------------------| 
D|------1111-------1111------------------------------11\---------------------| 
A|---3----------3------------------------------------------------------------| 
E|-5----------5----------5-----'Pausa para o Baixo'--------------------------| 
 

Verse: Riff 4x Palm muted 
 
E|-----------------------------------------------------------------------------| 
B|-----------------------------------------------------------------------------| 
G|-----------------------------------------------------------------------------| 
D|-----------------------------------------------------------------------------| 
A|----------3---6-7------3-----------------------------------------------------| 
E|--0w----5---5--------5---5-3-4-----------------------------------------------| 
 


Refrão: "johnny got a boom boom" 

 
E|------1212-------1212------------------------------12\---------------------| 
B|------1212-------1212------------------------------12\---------------------| 
G|------1212-------1212------------------------------12\---------------------| 
D|------1111-------1111------------------------------11\---------------------| 
A|---3----------3------------------------------------------------------------| 
E|-5----------5----------5-----'Pausa para o Baixo'--------------------------| 
 

Bridge: 

 
E|--x-5---x-5---x-x-x-5--| 
B|--x-8---x-8---x-x-x-8--| 
G|--x-6---x-6---x-x-x-6--| 
D|--x-5---x-5---x-x-x----| 
A|--x-7---x-7---x-x-x----| 
E|--x-5---x-5---x-x-x----| 
 

Refrão (variação): 

 
E|-1212----1212--------12\---------------------------------------------------| 
B|-1212----1212--------12\---------------------------------------------------| 
G|-1212----1212--------12\---------------------------------------------------| 
D|-1111----1111--------11\---------------------------------------------------| 
A|---------------------------------------------------------------------------| 
E|---------------------------------------------------------------------------| 
 

Solo (depois do solo de baixo): 
 
E|-----------------------------------------------------------------------| 
B|-----------------------------------------------------------------------| 
G|-----------------------------------------------------------------------| 
D|-----------------------------------------------------------------------| 
A|-----------------------------------------------------------------------| 
E|-0w------55-33-55-8888-55-33-55-0000-55-33-55-8888-101110111011-88-3/5-| 
 

Bridge: 

 
E|--x-5---x-5---x-x-x-5--| 
B|--x-8---x-8---x-x-x-8--| 
G|--x-6---x-6---x-x-x-6--| 
D|--x-5---x-5---x-x-x----| 
A|--x-7---x-7---x-x-x----| 
E|--x-5---x-5---x-x-x----| 
 


Refrão: 
 
E|-1212----1212-----1212-----12---------------12\-------------12\------------| 
B|-1212----1212-----1212-----12---------------12\-------------12\------------| 
G|-1212----1212-----1212-----12---------------12\-------------12\------------| 
D|-1111----1111-----1111-----11---------------11\-------------11\------------| 
A|---------------------------------------------------------------------------| 
E|-------------------------------'Basslick'--------'Basslick'----------------| 
	  

Search Paypal
auto scroll beats size up size down change color hide chords drawings
tab show chords e-chords YouTube Clip e-chords hide all tabs e-chords go to top tab