I The Mighty

Artful Temptress Paint Me Senseless

I The Mighty

tabs Advanced advanced

by  MARCNAGEL

save to print version add songbook text version e-mail correct tuner
chordsukulelecavacokeyboardtabbassdrumsharmonicaflute Guitar Pro
close

there isn't a video lesson for this song

chords

Artful Temptress Paint Me Senseless

	  		

Intro 0:00 0:17 
Guitar Two 
D|--------------------------------------------------------------9----9----9-----| 
A|-7-8---7----7-8---7----------------------7---7----7---7------7---7----7----7--| 
F|7-7---7-7----7---7-6--976-797-976-797---7-7-7----7-7-7------7-----7----7----7-| 
C|---------------------------------------9------9--------9---9------------------| 
G|------------------------------------------------------------------------------| 
C|------------------------------------------------------------------------------| 


0:18 - 0:30 
Guitar One 
D|---------------------------------------------------------------------------| 
A|---------------------------------------------------------------------------| 
F|---------------------------------------------------------------------------| 
C|7------------------------------------------------------------------7-------| 
G|7-X16--------------------------------------------------------------7-X8----| 
C|7------22-2-2-2-2-2-2-2/55-5-5-5-7-7-7-7-2-2-2-2-2-2-2-2/55-5-5-5--7-------| 

Guitar Two 
D|-----------------------------------------------------------------------------| 
A|-----------------------------------------------------------------------------| 
F|19-0-16-0-11h12p11h0-14-0-12-0-12-0-11-0-12-0-14-12h14p12p0-19-0-21-0-21-----| 
C|-----------------------------------------------------------------------21-19-| 
G|-----------------------------------------------------------------------------| 
C|-----------------------------------------------------------------------------| 

D|---------------------------------------------------------------------------| 
A|-----------------------------------------------------------20202020191919--| 
F|19-0-16-0-11h12p11h0-14-0-12-0-12-0-11-0-12-0-14-12h14p12p0----------------| 
C|---------------------------------------------------------------------------| 
G|---------------------------------------------------------------------------| 
C|---------------------------------------------------------------------------| 

0:30 - 1:09 
Guitar One 
D|---------------------------------------------------------------------------| 
A|---------------------------------------------------------------------------| 
F|--------7------------------------------------------------------------------| 
C|-9------7-X32--5------777-----2--------------------------------------------| 
G|-9-X32--5------5-X29--777-----2-X32----------------------------------------| 
C|-9-------------5------777-----2--------------------------------------------| 

Guitar Two 
D|-9--10--9-12---------------------5--5-4------------------------------------| 
A|-10-10-10-12---------------------3--5-5------------------------------------| 
F|-7--7--7---7--------------4/6\4--4--2-4------------------------------------| 
C|---------------------------------------------------------------------------| 
G|--------------907050402~~0-------------------------------------------------| 
C|---------------------------------------------------------------------------| 

1:09 - 1:28 

Guitar One 
D|---------------------------------------------------------------------------| 
A|---------------------------------------------------------------------------| 
F|---------------------------------------------------------------------------| 
C|----------------------------------------------5--------5--------5----------| 
G|--------7---------7---------7---------7-------------------------------7775-| 
C|-9~~7979---9~~7979--9~~7979----9~~7979---5~35--3--5~35--3--5~35--3--5~----7| 

D|-------------------------------------------------------------------------------------| 
A|-------------------------------------------------------------------------------------| 
F|-------------------------------------------------------------------------------------| 
C|----------------------------------------------5--------5--------5--------------------| 
G|--------7---------7---------7---------7-------------------------------------5--75----| 
C|-9~~7979---9~~7979--9~~7979----9~~7979---5~35--3--5~35--3--5~35--3--5~--7-9------7---| 

Guitar Two 
D|-------------------------------------------------------------------------------------| 
A|---------------------------------------------------------------------------14h15p14--| 
F|---11-11-9-9-7-7-----11-11-9-9-7-7-----11-11-9-9-7-7-----11-11-9-----11h14-----------| 
C|9~~-------------7-9~~-------------7-5~~-------------7-5~~--------9h12----------------| X2 
G|-------------------------------------------------------------------------------------| 
C|-------------------------------------------------------------------------------------| 


1:28 - 1:37 
Guitar One 
D|---------------------------------------------------------------------------| 
A|---------------------------------------------------------------------------| 
F|---------------------------------------------------------------------------| 
C|7------------------------------------------------------------------7-------| 
G|7-X16--------------------------------------------------------------7-X8----| 
C|7------22-2-2-2-2-2-2-2/55-5-5-5-7-7-7-7-2-2-2-2-2-2-2-2/55-5-5-5--7-------| 

Guitar Two 
D|-----------------------------------------------------------------------------| 
A|-----------------------------------------------------------------------------| 
F|19-0-16-0-11h12p11h0-14-0-12-0-12-0-11-0-12-0-14-12h14p12p0-19-0-21-0-21-----| 
C|-----------------------------------------------------------------------21-19-| 
G|-----------------------------------------------------------------------------| 
C|-----------------------------------------------------------------------------| 

D|---------------------------------------------------------------------------| 
A|-----------------------------------------------------------20202020191919--| 
F|19-0-16-0-11h12p11h0-14-0-12-0-12-0-11-0-12-0-14-12h14p12p0----------------| 
C|---------------------------------------------------------------------------| 
G|---------------------------------------------------------------------------| 
C|---------------------------------------------------------------------------| 


1:37 - 2:15 
Guitar One 
D|---------------------------------------------------------------------------| 
A|---------------------------------------------------------------------------| 
F|--------7------------------------------------------------------------------| 
C|-9------7-X32--5------777-----2--------------------------------------------| 
G|-9-X32--5------5-X29--777-----2-X32----------------------------------------| 
C|-9-------------5------777-----2--------------------------------------------| 

Guitar Two 
D|-9--10--9-12---------------------5--5-4----------------------------------------| 
A|-10-10-10-12---------------------3--5-5----------------------------------------| 
F|-7--7--7---7--------------4/6\4--4--2-4----------------------------------------| 
C|-------------------------------------------------------------------------------| 
G|--------------907050402~~0-----------------------------------------------------| 
C|-------------------------------------------------------------------------------| 


2:15 - 2:30 
Guitar Two 
D|---------------------------------------------------------------------------| 
A|---------------------------------------------------------------------------| 
F|---------------------------------------------------------------------------| 
C|-7---7---4-----------------------------------------------------------------| 
G|-7---5---2-----------------------------------------------------------------| 
C|-7---5---2-----------------------------------------------------------------| 
I don't know if these are the correct chords 

2:30- 3:16 

Guitar One 
D|---------------------------------------------------------------------------| 
A|---------------------------------------------------------------------------| 
F|---------------------------------------------------------------------------| 
C|---------5555555577777777999999999999999955555555777777772222222222222-----| 
G|22222444-5555555577777777999999999999999955555555777777772222222222222-----| 
C|22222444-55555555777777779999999999999999555555557777777722222222222224444-| 

D|---------------------------------------------------------------------------| 
A|---------------------------------------------------------------------------| 
F|---------------------------------------------------------------------------| 
C|-5555555577777777999999999999999955555555777777772222222222222-------------| 
G|-5555555577777777999999999999999955555555777777772222222222222-------------| 
C|-55555555777777779999999999999999555555557777777722222222222224444---------| 

D|---------------------------------------------------------------------------| 
A|---------------------------------------------------------------------------| 
F|---------------------------------------------------------------------------| 
C|-555555557777777799999999--------55555555777777772222222222222-------------| 
G|-555555557777777799999999--------55555555777777772222222222222-------------| 
C|-55555555777777779999999922222444555555557777777722222222222224444---------| 

D|---------------------------------------------------------------------------| 
A|---------------------------------------------------------------------------| 
F|---------------------------------------------------------------------------| 
C|-555555557777--------------------------------------------------------------| 
G|-555555557777--------------------------------------------------------------| 
C|-555555557777--------------------------------------------------------------| 

Guitar Two 
D|14-0-12-0-10-0-9-0-797-0-797-0---12--12--12--12--10--10--10--10------------| 
A|-------------------------------15--15--15--15------12--12--12--12----------| 
F|---------------------------------------------------------------------------| 
C|---------------------------------------------------------------------------| 
G|---------------------------------------------------------------------------| 
C|---------------------------------------------------------------------------| 

D|14-0-12-0-10-0-9-0-797-0-797-0--12--12--12--12--10--10-7-9-10-12-------------| 
A|------------------------------15--15--15--15--14--14-------------------------| 
F|-----------------------------------------------------------------------------| 
C|-----------------------------------------------------------------------------| 
G|-----------------------------------------------------------------------------| 
C|-----------------------------------------------------------------------------| 

************************************ 

| /   slide up 
| \   slide down 
| h   hammer-on 
| p   pull-off 
| ~   vibrato 
| +   harmonic 
| x   Mute note 
| b   Bend 
| pb  Pre-bend 
| br  Bend release 
| pbr Pre-bend release 
| brb Bend release bend 

************************************ 
		  

See also:

tabs David Aguilar - Eco tabs Misc Computer Games - The Witcher 3 Ost - Lullaby Of Woe A Night To Remember Song (acoustic) tabs Misc Computer Games - Damned Black Ops Zombies Menu Music tabs Misc Computer Games - Undertale - His Theme tabs Misc Television - Gravity Falls Theme tabs Misc Computer Games - Far Cry 5 - We Will Rise Again
e-chords

Other versions:

tabs I The Mighty - Artful Temptress Paint Me Senseless
auto scroll beats size up size down change color hide chords drawings
tab show chords e-chords YouTube Clip e-chords hide all tabs e-chords go to top tab

share