Hot Water Music

Where We Belong

Hot Water Music

tabs

by  GUSTSILVA

save to print version add songbook text version e-mail correct tuner
chordsukulelecavacokeyboardtabbassdrumsharmonicaflute Guitar Pro
close

there isn't a video lesson for this song

chords

Where We Belong

	  		

Tuning: Standard 

(Intro) 
e|--------------------0-----------------4---0-0-0-0-0-0-0-2---2-2-2-2-2-2-2--| 
B|--0---0-0-0-0-0-0-0-4---4-4-4-4-4-4-4-4---4-4-4-4-4-4-4-2---2-2-2-2-2-2-2--| 
G|--4---4-4-4-4-4-4-4-4---4-4-4-4-4-4-4-4---4-4-4-4-4-4-4-4---4-4-4-4-4-4-4--| x4 
D|---------------------------------------------------------------------------| 
A|---------------------------------------------------------------------------| 
E|---------------------------------------------------------------------------| 

(Verse) 
e|---------------------------------------------------------------------------| 
B|---------------------------------------------------------------------------| 
G|-4--3-6-3-4-3-6-3h4--3-6-3-4-3-6-3h4--3-6-3-4-3-6-3h4--3-6-3-4-3-6-3h4--(4)| x4 
D|---------------------------------------------------------------------------| 
A|---------------------------------------------------------------------------| 
E|---------------------------------------------------------------------------| 

(Chorus) 
e|---------------------------------------------------------------------------| 
B|---------------------------------------------------------------------------| 
G|------------------------------------------4--------------------------------| 
D|--6---------------------2-----------------4------------------4-------------| x4 
A|--6---------------------2-----------------2------------------4-------------| 
E|--4---------------------0------------------------------------2-------------| 

(Verse) 
e|---------------------------------------------------------------------------| 
B|---------------------------------------------------------------------------| 
G|-4--3-6-3-4-3-6-3h4--3-6-3-4-3-6-3h4--3-6-3-4-3-6-3h4--3-6-3-4-3-6-3h4--(4)| x2 
D|---------------------------------------------------------------------------| 
A|---------------------------------------------------------------------------| 
E|---------------------------------------------------------------------------| 

(bridge) 
e|---------------------------------------------------------------------------| 
B|---------------------------------------------------------------------------| 
G|-11---9---8h9p8--------------------------11---9---8h9---8------------------| 
D|----------------9----------------------------------------------------------| 
A|---------------------------------------------------------------------------| 
E|---------------------------------------------------------------------------| 

(solo) 
   (There are actually two guitars playing at different positions, but I 
    like to switch between each part to give it a layered sound with just 
    the one guitar. Listen to the track to see what works best for you) 
e|---------------------------------------------------------------------------| 
B|-----------------------------------------4-5-7-5---4h5--------7--5--4h5-4--| 
G|--8-9-11-9---8h9p8-------11--9--8h9--8------------------4------------------| 
D|-------------------9-------------------------------------------------------| 
A|---------------------------------------------------------------------------| 
E|---------------------------------------------------------------------------| 

e|---------------------------------------------------------------------------| 
B|--4-5-7-5---4h5---------7--5--4h5-4----------------------------------------| 
G|-----------------4---------------------8-9-11-9---8h9-------11--9--8h9--8--| 
D|------------------------------------------------------9--------------------| 
A|---------------------------------------------------------------------------| 
E|---------------------------------------------------------------------------| 

e|---------------------------------------------------------------------------| 
B|---------------------------------------------------------------------------| 
G|--------------------------------------4---4-4-4-4-4-4-4--------------------| 
D|-(6)--6-6-6-6-6-6-6-2---2-2-2-2-2-2-2-4---4-4-4-4-4-4-4-4---4-4-4-4-4-4-6--| x2 
A|-(6)--6-6-6-6-6-6-6-2---2-2-2-2-2-2-2-2---2-2-2-2-2-2-2-4---4-4-4-4-4-4-6--| 
E|-(4)--4-4-4-4-4-4-4-0---0-0-0-0-0-0-0-------------------2---2-2-2-2-2-2-4--| 

(same as intro) 
e|--------------------0-----------------4---0-0-0-0-0-0-0-2---2-2-2-2-2-2-2--| 
B|--0---0-0-0-0-0-0-0-4---4-4-4-4-4-4-4-4---4-4-4-4-4-4-4-2---2-2-2-2-2-2-2--| 
G|--4---4-4-4-4-4-4-4-4---4-4-4-4-4-4-4-4---4-4-4-4-4-4-4-4---4-4-4-4-4-4-4--| x2 
D|---------------------------------------------------------------------------| 
A|---------------------------------------------------------------------------| 
E|---------------------------------------------------------------------------| 

(Chorus) 
e|---------------------------------------------------------------------------| 
B|---------------------------------------------------------------------------| 
G|------------------------------------------4--------------------------------| 
D|--6---------------------2-----------------4------------------4-------------| x2 
A|--6---------------------2-----------------2------------------4-------------| 
E|--4---------------------0------------------------------------2-------------| 

(outro) 
e|--------------------0------------------------------------------------------| 
B|--0---0-0-0-0-0-0-0-4---4-4-4-4-4-4-4-0---0-0-0-0-0-0-0-0-0-0-0-0----------| 
G|--4---4-4-4-4-4-4-4-4---4-4-4-4-4-4-4-4---4-4-4-4-4-4-4-4-3h4p3-4----------| 
D|---------------------------------------------------------------------------| 
A|---------------------------------------------------------------------------| 
E|---------------------------------------------------------------------------| 


************************************ 

| /   slide up 
| \   slide down 
| h   hammer-on 
| p   pull-off 
| ~   vibrato 
| +   harmonic 
| x   Mute note 
| b   Bend 
| pb  Pre-bend 
| br  Bend release 
| pbr Pre-bend release 
| brb Bend release bend 

************************************ 
		  

auto scroll beats size up size down change color hide chords drawings
tab show chords e-chords YouTube Clip e-chords hide all tabs e-chords go to top tab

share