Hot Mulligan

I Fell In Love With Princess Peach

Hot Mulligan

tabs

by  RENEJUNIOR

save to print version add songbook text version e-mail correct tuner
chordsukulelecavacokeyboardtabbassdrumsharmonicaflute Guitar Pro
close

there isn't a video lesson for this song

chords

I Fell In Love With Princess Peach

	  		

Intro 

E|-------------------|-------------------|-------------------|-------------| 
B|--5h7-----7--------|--5h7-----7--------|--5h7-----7--------|--5h7-----7--| 
G|------0-----0---0--|------0-----0---0--|------0-----0---0--|------0------| 
D|--------0-----0----|--------0-----0----|--------0-----0----|--------0----| 
A|-------------------|-------------------|-------------------|-------------| 
D|--5----------------|--5----------------|--5----------------|--5----------| 


Verse 

Guitar 1 
E|-------------------|-------------------|--------------| 
B|--5h7-----7--------|--5h7-----7--------|--7~----5--7--| 
G|------0-----0---0--|------0-----0---0--|--7~----6--7--| x7 
D|--------0-----0----|--------0-----0----|--0~----0--0--| 
A|-------------------|-------------------|--0~----0--0--| 
D|--5----------------|--5----------------|--------------| 

E|-------------------|-------------------|-------------------| 
B|--5h7-----7--------|--5h7-----7--------|------7-------5----| 
G|------0-----0---0--|------0-----0---0--|----7---7---6---6--| 
D|--------0-----0----|--------0-----0----|----------0--------| 
A|-------------------|-------------------|--0----------------| 
D|--5----------------|--5----------------|-------------------| 


Guitar 2 
E|--5-------| 
B|------7---| 
G|----------| Repeat for entirety of verse 
D|----------| 
A|----------| 
D|----------| 


Interlude 

Guitar 1 
E|-----------------------------------|-----------------------------------| 
B|-----------------------------------|-----------------------------------| 
G|--7-7-7-7-7-7-7-7-7-7-7-7-7-7-7-7--|--9-9-9-9-9-9-9-9-9-9-9-9-9-9-9-9--| 
D|--0-0-0-0-0-0-0-0-0-0-0-0-0-0-0-0--|--0-0-0-0-0-0-0-0-0-0-0-0-0-0-0-0--| 
A|--x-x-x-x-x-x-x-x-x-x-x-x-x-x-x-x--|--x-x-x-x-x-x-x-x-x-x-x-x-x-x-x-x--| 
D|--5-5-5-5-5-5-5-5-5-5-5-5-5-5-5-5--|--7-7-7-7-7-7-7-7-7-7-7-7-7-7-7-7--| 

E|-------------------------------------------|--------------------------x-x-x-x--| 
B|-------------------------------------------|--------------------------x-x-x-x--| 
G|--11-11-11-11-11-11-11-11-9-9-9-9-9-9-9-9--|--7-7-7-7-7-7-7-7-7-7-7-7-x-x-x-x--| 
D|--0--0--0--0--0--0--0--0--0-0-0-0-0-0-0-0--|--0-0-0-0-0-0-0-0-0-0-0-0-x-x-x-x--| 
A|--x--x--x--x--x--x--x--x--x-x-x-x-x-x-x-x--|--x-x-x-x-x-x-x-x-x-x-x-x-x-x-x-x--| 
D|--9--9--9--9--9--9--9--9--7-7-7-7-7-7-7-7--|--5-5-5-5-5-5-5-5-5-5-5-5-x-x-x-x--| 

Guitar 2 
E|--5---5---5---5---5---5---5---5----|--5---5---5---5---5---5---5---5----| 
B|----7---7---7---7---7---7---7---7--|----5---5---5---5---5---5---5---5--| 
G|-----------------------------------|-----------------------------------| 
D|-----------------------------------|-----------------------------------| 
A|-----------------------------------|-----------------------------------| 
D|-----------------------------------|-----------------------------------| 

E|--5---5---5---5---5---5---5---5----|--5---5---5---5---5---5---x-x-x-x--| 
B|-----------------------------------|----7---7---7---7---7---7-x-x-x-x--| 
G|----7---7---7---7---6---6---6---6--|--------------------------x-x-x-x--| 
D|-----------------------------------|--------------------------x-x-x-x--| 
A|-----------------------------------|--------------------------x-x-x-x--| 
D|-----------------------------------|--------------------------x-x-x-x--| 


Bridge 

Guitar 1 
E|-----------------------------------|-----------------------------------| 
B|-----------------------------------|-----------------------------------| 
G|--7-7-7-7-7-7-7-7-7-7-7-7-7-7-7-7--|--9-9-9-9-9-9-9-9-9-9-9-9-9-9-9-9--| 
D|--0-0-0-0-0-0-0-0-0-0-0-0-0-0-0-0--|--0-0-0-0-0-0-0-0-0-0-0-0-0-0-0-0--| 
A|--x-x-x-x-x-x-x-x-x-x-x-x-x-x-x-x--|--x-x-x-x-x-x-x-x-x-x-x-x-x-x-x-x--| 
D|--5-5-5-5-5-5-5-5-5-5-5-5-5-5-5-5--|--7-7-7-7-7-7-7-7-7-7-7-7-7-7-7-7--| 

E|-------------------------------------------|-----------------------------------| 
B|-------------------------------------------|-----------------------------------| 
G|--11-11-11-11-11-11-11-11-9-9-9-9-9-9-9-9--|--7-7-7-7-7-7-7-7-7-7-7-7-7-7-7-7--| 
D|--0--0--0--0--0--0--0--0--0-0-0-0-0-0-0-0--|--0-0-0-0-0-0-0-0-0-0-0-0-0-0-0-0--| 
A|--x--x--x--x--x--x--x--x--x-x-x-x-x-x-x-x--|--x-x-x-x-x-x-x-x-x-x-x-x-x-x-x-x--| 
D|--9--9--9--9--9--9--9--9--7-7-7-7-7-7-7-7--|--5-5-5-5-5-5-5-5-5-5-5-5-5-5-5-5--| 

E|-----------------------------------|-----------------------------------| 
B|-----------------------------------|-----------------------------------| 
G|--7-7-7-7-7-7-7-7-7-7-7-7-7-7-7-7--|--9-9-9-9-9-9-9-9-9-9-9-9-9-9-9-9--| 
D|--0-0-0-0-0-0-0-0-0-0-0-0-0-0-0-0--|--0-0-0-0-0-0-0-0-0-0-0-0-0-0-0-0--| 
A|--x-x-x-x-x-x-x-x-x-x-x-x-x-x-x-x--|--x-x-x-x-x-x-x-x-x-x-x-x-x-x-x-x--| 
D|--5-5-5-5-5-5-5-5-5-5-5-5-5-5-5-5--|--7-7-7-7-7-7-7-7-7-7-7-7-7-7-7-7--| 

E|-------------------------------------------|-----------------------------------| 
B|-------------------------------------------|-----------------------------------| 
G|--11-11-11-11-11-11-11-11-9-9-9-9-9-9-9-9--|--7-7-7-7-7-7-7-7-7-7-7-7-7-7-7-7--| 
D|--0--0--0--0--0--0--0--0--0-0-0-0-0-0-0-0--|--0-0-0-0-0-0-0-0-0-0-0-0-0-0-0-0--| 
A|--x--x--x--x--x--x--x--x--x-x-x-x-x-x-x-x--|--x-x-x-x-x-x-x-x-x-x-x-x-x-x-x-x--| 
D|--9--9--9--9--9--9--9--9--7-7-7-7-7-7-7-7--|--5-5-5-5-5-5-5-5-5-5-5-5-5-5-5-5--| 

E|-----------------------------------|-----------------------------------| 
B|-----------------------------------|-----------------------------------| 
G|--7-7-7-7-7-------7-7-7-7-7--------|--9-9-9-9-9-------9-9-9-9-9-9-9-9--| 
D|--0-0-0-0-0-------0-0-0-0-0--------|--0-0-0-0-0-------0-0-0-0-0-0-0-0--| 
A|--x-x-x-x-x-------x-x-x-x-x--------|--x-x-x-x-x-------x-x-x-x-x-x-x-x--| 
D|--5-5-5-5-5-------5-5-5-5-5--------|--7-7-7-7-7-------7-7-7-7-7-7-7-7--| 

E|-------------------------------------------|-----------------------------------| 
B|-------------------------------------------|-----------------------------------| 
G|--11-11-11-11-11-11-11-11-9-9-9-9-9-9-9-9--|--7-7-7-7-7-7-7-7-7-7-7-7-7-7-7-7--| 
D|--0--0--0--0--0--0--0--0--0-0-0-0-0-0-0-0--|--0-0-0-0-0-0-0-0-0-0-0-0-0-0-0-0--| 
A|--x--x--x--x--x--x--x--x--x-x-x-x-x-x-x-x--|--x-x-x-x-x-x-x-x-x-x-x-x-x-x-x-x--| 
D|--9--9--9--9--9--9--9--9--7-7-7-7-7-7-7-7--|--5-5-5-5-5-5-5-5-5-5-5-5-5-5-5-5--| 

E|-----------------------------------|------------| 
B|-----------------------------------|------------| 
G|--7~-------9~-------11~---9~---7~--|------------| 
D|--0~-------0~-------0~----0~---0~--|------------| 
A|--x--------x--------x-----x----x---|------------| 
D|--5~-------7~-------9~----7~---5~--|--7-/9--\5--| 

Guitar 2 
E|--5---5---5---5---5-5-5-5-5-5-5-5--|--5---5---5---5---5-5-5-5-5-5-5-5--| 
B|----7---7---7---7-5-5-5-5-x-x-x-x--|----5---5---5---5-5-5-5-5-7-7-7-7--| 
G|--------------------------7-7-7-7--|-----------------------------------| 
D|-----------------------------------|-----------------------------------| 
A|-----------------------------------|-----------------------------------| 
D|-----------------------------------|-----------------------------------| 

E|--5---5---5---5---5---5---5---5----|--5-5-5-5-5-5-5-5-5-5-5-5-5-5-5-5--| 
B|-----------------------------------|--x-x-x-x-x-x-x-x-5-5-5-5-5-5-5-5--| 
G|----7---7---7---7---6---6---6---6--|--7-7-7-7-7-7-7-7------------------| 
D|-----------------------------------|-----------------------------------| 
A|-----------------------------------|-----------------------------------| 
D|-----------------------------------|-----------------------------------| 

E|--5---5---5---5---5-5-5-5-5-5-5-5--|--5---5---5---5---5-5-5-5-5-5-5-5--| 
B|----7---7---7---7-5-5-5-5-x-x-x-x--|----5---5---5---5-5-5-5-5-7-7-7-7--| 
G|--------------------------7-7-7-7--|-----------------------------------| 
D|-----------------------------------|-----------------------------------| 
A|-----------------------------------|-----------------------------------| 
D|-----------------------------------|-----------------------------------| 

E|--5---5---5---5---5---5---5---5----|--5-5-5-5-5-5-5-5-5-5-5-5-5-5-5-5--| 
B|-----------------------------------|--x-x-x-x-x-x-x-x-5-5-5-5-5-5-5-5--| 
G|----7---7---7---7---6---6---6---6--|--7-7-7-7-7-7-7-7------------------| 
D|-----------------------------------|-----------------------------------| 
A|-----------------------------------|-----------------------------------| 
D|-----------------------------------|-----------------------------------| 

E|--5---5---5---5---5---5---5---5----|--5---5---5---5---5---5---5---5----| 
B|----7---7---7---7---7---7---7---7--|----7---7---7---7---7---7---7---7--| 
G|-----------------------------------|-----------------------------------| 
D|-----------------------------------|-----------------------------------| 
A|-----------------------------------|-----------------------------------| 
D|-----------------------------------|-----------------------------------| 

E|--5---5---5---5---5-5-5-5-5-5-5-5--|--5-5-5-5-5-5-5-5-5-5-5-5-5-5-5-5--| 
B|----7---7---7---7-5-5-5-5-5-5-5-5--|--x-x-x-x-x-x-x-x-5-5-5-5-5-5-5-5--| 
G|-----------------------------------|--7-7-7-7-7-7-7-7------------------| 
D|-----------------------------------|-----------------------------------| 
A|-----------------------------------|-----------------------------------| 
D|-----------------------------------|-----------------------------------| 

E|--5~-------5~-------5~---5~---5~--|------------| 
B|--7~-------5~-------7~---5~---x---|------------| 
G|------------------------------7~--|--9-/11-\7--| 
D|----------------------------------|------------| 
A|----------------------------------|------------| 
D|----------------------------------|------------| 



************************************** 

|  x    mute note 
|  h    hammer on 
|  ~    sustained note 
|  /    slide up 
|  \    slide down 

************************************** 
		  

See also:

tabs Ira! - Poço de Sensibilidade (Solo - Acustico Mtv) tabs Deep Purple - Smoke On The Water tabs Deep Purple - Smoke on the water (intro) tabs Ira! - Eu Quero Sempre Mais (Com Pitty, intro) tabs Deep Purple - Smoke on the Water (ver. 2) tabs Deep Purple - Knocking At Your Back Door
e-chords

Other versions:

tabs Hot Mulligan - I Fell In Love With Princess Peach
auto scroll beats size up size down change color hide chords drawings
tab show chords e-chords YouTube Clip e-chords hide all tabs e-chords go to top tab

share