Hot Apple Pie

Hillbillies

Hot Apple Pie

tabs Advanced advanced

save to print version add songbook text version e-mail correct tuner
chordsukulelecavacokeyboardtabbassdrumsharmonicaflute Guitar Pro
close

there isn't a video lesson for this song

chords

Hillbillies

	  		Intro: 
E----------------0- 
B----x3------------ 
G--2b---x2-0h1----- 
D-------------2-2-- 
A------------------ 
E------------------ 
 
Walk up at 1:05 
E----------- 
B----------- 
G---------2- 
D---------2- 
A---------0- 
E-0-2-3-4--- 
 
1:42 
E----------------------------- 
B-15pbr----------------------- 
G------14pbr-------------2/--- 
D-----------16b-16b-14---2/--- 
A---------------------------2- 
E---------------------------0- 
		  

See also:

tabs John Denver - Sunshine On My Shoulders tabs Randy Travis - 3 Wooden Crosses tabs Theme Songs - King Of The Hill tabs Lester Flatt - Dueling Banjos tabs John Denver - Take Me Home, Country Roads tabs Alan Jackson - Summertime Blues
e-chords

Other versions:

tabs Hot Apple Pie - Hillbillies
auto scroll beats size up size down change color hide chords drawings
tab show chords e-chords YouTube Clip e-chords hide all tabs e-chords go to top tab

share