Hoobastank

The Reason (Ver.2)

Hoobastank

tabs Easy easy

by  THEBOON

save to print version add songbook text version e-mail correct tuner
chordsukulelecavacokeyboardtabbassdrumsharmonicaflute Guitar Pro
close

there isn't a video lesson for this song

chords

The Reason (Ver.2)

	  		Tuning: E A D G h e 
Tabs by Boon 
 
1st guitar: 
    E                      C#m                 C#m              E 
e|--2--4----------------|-------------------|----------------|--2--4---------------| 
h|--------4--5--(8x)->2-|--4--5-----2--(3x)-|--4--5----------|--------4--5--(4x)->2| 
G|----------------------|--------4----------|--------4--(1x)-|---------------------| 
D|----------------------|-------------------|----------------|---------------------| 
A|----------------------|-------------------|----------------|---------------------| 
E|----------------------|-------------------|----------------|---------------------| 
 
1st guitar: 
    C#m                   C#m            A 
e|---------------------|----------------|------------------|-----------------| 
h|--4--5-----2----(3x)-|--4--5----------|-4--5-----2--(3x)-|-4--5------------| 
G|--------4------------|--------4--(1x)-|-------4----------|-------4--4--(1x)| 
D|---------------------|----------------|------------------|-----------------| 
A|---------------------|----------------|------------------|-----------------| 
E|---------------------|----------------|------------------|-----------------| 
 
1st guitar: 
      B                              A 
e|--------------------------------|-------------------------| 
h|----2-----4---------------------|--4--5-----2--4--5-------| 
G|----------------4------4--(2X)--|--------4-----------4--4-| 
D|--------------------------------|-------------------------| 
A|--------------------------------|-------------------------| 
E|--------------------------------|-------------------------| 
 
2nd guitar: 
 
e|11-12-11-12-11-12-11-12-11--(2x)|-------------------------| 
h|--------------------------------|-------------------------| 
G|--------------------------------|-------------------------| 
D|--------------------------------|-------------------------| 
A|--------------------------------|-------------------------| 
E|--------------------------------|-------------------------| 
 
1st guitar: 
    B 
e|---------------------------------| 
h|----2-----4----------------------| 
G|----------------4------4--(2X)---| 
D|---------------------------------| 
A|---------------------------------| 
E|---------------------------------| 
 
2nd guitar: 
 
e|11-12-11-12-11-12-11-12-11--(2x)-| 
h|---------------------------------| 
G|---------------------------------| 
D|---------------------------------| 
A|---------------------------------| 
E|---------------------------------| 
 
2nd guitar 
 
   E                      C#m                   C#m                      A 
e|--0--------0-------0--|-4--4-4--4-4--4-4--4-|-4--4-4--4-4--4-4--4--4-|-0-0-0-0-0--0-0-0-0-0--0-0-0-0| 
h|--0--------0-------0--|-5--5-5--5-5--5-5--5-|-5--5-5--5-5--5-5--5--5-|-2-2-2-2-2--2-2-2-2-2--2-2-2-2| 
G|--1--------1-------1--|-6--6-6--6-6--6-6--6-|-6--6-6--6-6--6-6--6--6-|-2-2-2-2-2--2-2-2-2-2--2-2-2-2| 
D|--2--------2-------2--|-6--6-6--6-6--6-6--6-|-6--6-6--6-6--6-6--6--6-|-2-2-2-2-2--2-2-2-2-2--2-2-2-2| 
A|--2--------2-------2--|-4--4-4--4-4--4-4--4-|-4--4-4--4-4--4-4--4--4-|-0-0-0-0-0--0-0-0-0-0--0-0-0-0| 
E|--0--------0-------0--|---------------------|------------------------|------------------------------| 
 I  found a  reason  for  me                   To  change who i used  to be 
 
2nd guitar 
 
   A                              B 
e|-0-0-0-0-0--0-0--0-0--0-0-0-0-|-2-2-2-2-2--2-2--2-2--2-2-2-2-2| 
h|-2-2-2-2-2--2-2--2-2--0-2-2-2-|-4-4-4-4-4--4-4--4-4--4-4-4-4-4| 
G|-2-2-2-2-2--2-2--2-2--2-2-2-2-|-4-4-4-4-4--4-4--4-4--4-4-4-4-4| 
D|-2-2-2-2-2--2-2--2-2--2-2-2-2-|-4-4-4-4-4--4-4--4-4--4-4-4-4-4| 
A|-0-0-0-0-0--0-0--0-0--0-0-0-0-|-2-2-2-2-2--2-2--2-2--2-2-2-2-2| 
E|------------------------------|-------------------------------| 
  A   reason   to   start   over  new 
 
2nd guitar 
 
   B                              E 
e|-2-2-2-2-2--2-2--2-2--2-2-2-2-|-0-| 
h|-4-4-4-4-4--4-4--4-4--4-4-4-4-|-0-|     
G|-4-4-4-4-4--4-4--4-4--4-4-4-4-|-1-| 
D|-4-4-4-4-4--4-4--4-4--4-4-4-4-|-2-| 
A|-2-2-2-2-2--2-2--2-2--2-2-2-2-|-2-|                          <------------ 
E|------------------------------|-0-|				     
  And    the    reason    is     you   (repeat all but instead of this you play): 
 
2nd guitar  
 
   B                              D 
e|-2-2-2-2-2--2-2--2-2--2-2-2-2-|-2-2-2-2-2--2-2-2-2-2--2-2-2-2-2-| 
h|-4-4-4-4-4--4-4--4-4--4-4-4-4-|-3-3-3-3-3--3-3-3-3-3--3-3-3-3-3-|     
G|-4-4-4-4-4--4-4--4-4--4-4-4-4-|-2-2-2-2-2--2-2-2-2-2--2-2-2-2-2-| 
D|-4-4-4-4-4--4-4--4-4--4-4-4-4-|-0-0-0-0-0--0-0-0-0-0--0-0-0-0-0-| 
A|-2-2-2-2-2--2-2--2-2--2-2-2-2-|---------------------------------|                        
E|------------------------------|---------------------------------| 
  And     the    reason    is     you  
 
2nd guitar 
 
   D                                 E 
e|-2-2-2-2-2--2-2-2-2-2--2-2-2-2-2-|-0---0----0---0----0----0|      
h|-3-3-3-3-3--3-3-3-3-3--3-3-3-3-3-|-0---0----0---0----0----0|      
G|-2-2-2-2-2--2-2-2-2-2--2-2-2-2-2-|-1---1----1---1----1----1|      
D|-0-0-0-0-0--0-0-0-0-0--0-0-0-0-0-|-2---2----2---2----2----2|      
A|---------------------------------|-2---2----2---2----2----2|      
E|---------------------------------|-0---0----0---0----0----0|      
          And    the    reason    is    you                         
								    
2nd guitar   						            
								    
   E                     D				            
e|-0---0----0---0----0-|-2-2-2-2-2--2-2-2-2-2--2-2-2-2-2|           
h|-0---0----0---0----0-|-3-3-3-3-3--3-3-3-3-3--3-3-3-3-3|           
G|-1---1----1---1----1-|-2-2-2-2-2--2-2-2-2-2--2-2-2-2-2|           
D|-2---2----2---2----2-|-0-0-0-0-0--0-0-0-0-0--0-0-0-0-0|           
A|-2---2----2---2----2-|--------------------------------|           
E|-0---0----0---0----0-|--------------------------------|   
  And  the  reason  is  you 
 
2nd guitar 
 
   D                                 E 
e|-2-2-2-2-2--2-2-2-2-2--2-2-2-2-2-|-0---0----0---0----0----0|      
h|-3-3-3-3-3--3-3-3-3-3--3-3-3-3-3-|-0---0----0---0----0----0|      
G|-2-2-2-2-2--2-2-2-2-2--2-2-2-2-2-|-1---1----1---1----1----1|      
D|-0-0-0-0-0--0-0-0-0-0--0-0-0-0-0-|-2---2----2---2----2----2|      
A|---------------------------------|-2---2----2---2----2----2|      
E|---------------------------------|-0---0----0---0----0----0|      
        And    the    reason    is    you        
 
repeat 1st part      
 
 
lyrics: 
 
E                      C#m 
  I'm not a perfect person 
                                    E 
There's many things I wish I didn't do 
                   C#m 
But I continue learning 
                                     A 
I never meant to do those things to you 
                              B 
And so I have to say before I go 
                          E 
That I just want you to know 
 
I've found a reason for me 
To change who I used to be 
A reason to start over new 
and the reason is you 
 
I'm sorry that I hurt you 
It's something I must live with everyday 
And all the pain I put you through 
I wish that I could take it all away 
And be the one who catches all your tears 
Thats why i need you to hear 
 
I've found a reason for me 
To change who I used to be 
A reason to start over new 
and the reason is You {x4} 
 
I'm not a perfect person 
I never meant to do those things to you 
And so I have to say before I go 
That I just want you to know 
 
I've found a reason for me 
To change who I used to be 
A reason to start over new 
and the reason is you 
 
I've found a reason to show 
A side of me you didn't know 
A reason for all that I do 
And the reason is you                 
 

		  

Full key step upFull key step up
Half key step upHalf key step up
Half key step downHalf key step down
Full key step downFull key step down
hide glossary

See also:

tabs Dire Straits - Brothers in Arms tabs The Shadows - Apache tabs Status Quo - Whatever you want tabs Yes - Roundabout tabs Dire Straits - Sultans of Swing tabs Queen - Bohemian Rhapsody
e-chords

Other versions:

tabs Hoobastank - The Reason tabs Hoobastank - The Reason (ver. 2) tabs Hoobastank - The Reason (Ver.2) tabs Hoobastank - The Reason Acoustic tabs P.O.D. - The Reasons
auto scroll beats size up size down change color hide chords drawings
tab show chords e-chords YouTube Clip e-chords hide all tabs e-chords go to top tab

share