Hombres G

Devuelveme A Mi Chica

Hombres G

tabs Expert expert

by  MARCNAGEL

save to print version add songbook text version e-mail correct tuner
chordsukulelecavacokeyboardtabbassdrumsharmonicaflute Guitar Pro
close

there isn't a video lesson for this song

chords

Devuelveme A Mi Chica

Year: 1983 - Album: Los Singles 1985-2005

	  		Riff 1 
Cuando se besan lo paso fatal... 

e|---------------------------| 
B|---------------------------| 
G|---------13h14p13----------| 
D|-------------------16-14---| 
A|--14-16--------------------| 
E|---------------------------|   

SOLO 

e|-10-----------------------------| 
B|---10---------------------------| 
G|------10--/12-10-12-10?12/14-14-| 
D|--------------------------------| 
A|--------------------------------| 
E|--------------------------------| 

e|-/10-10-10h13-10---------------------|-5-4----------3----| 
B|-------------------------------------|-5-4----3-------3--| 
G|----------------10-12-10?12/14-16-14-|-5-4-3-----3------3| 
D|-------------------------------------|-------------------| 
A|-------------------------------------|-------------------| 
E|-------------------------------------|-------------------| 

e|-------------10-----|---------3-----|-------------------3/4/5-| 
B|-----10--------10---|----3------3---|-------------3/4/5-------| 
G|-/10-----10------10-|--3----3-----3-|-------0/3/5-------------| 
D|--------------------|---------------|-4?5---------------------| 
A|--------------------|---------------|-------------------------| 
E|--------------------|---------------|-------------------------| 

e|-/7--/8?--8/9/10---/12-10vv-| 
B|----------------------------| 
G|----------------------------| 
D|----------------------------| 
A|----------------------------| 
E|----------------------------| 




Riff 2 

Voy a vengarme de ese marik... 

e|-/13-13--10----10---10-------10--| 
B|------------13----13---10-12-----| 
G|---------------------------------| 
D|---------------------------------| 
A|---------------------------------| 
E|---------------------------------| 

Riff 3 

Voy a destrozarle el choche... 

e|-----10------10---------10----/13---10----| 
B|--10------10---------10-------------------| 
G|--10------10-------10---------------------| 
D|--10------10-----10-----------------------| 
A|------------------------------------------| 
E|------------------------------------------| 


Riff 4 

(Esto se hace en el final cuando repiten el coro varias veces) 

e|----------------------------| 
B|----------------------------| 
G|-10---/14---12---10---------| 
D|----------------------------| 
A|----------------------------| 
E|----------------------------| 

Riff 5 (final) 

(Esto se hace después del último coro que repiten) 

e|----------------------------| 
B|----------------------------| 
G|-10---/14---/17----/19------| 
D|----------------------------| 
A|----------------------------| 
E|----------------------------| 
		  

auto scroll beats size up size down change color hide chords drawings
tab show chords e-chords YouTube Clip e-chords hide all tabs e-chords go to top tab

share