save to print version add songbook text version e-mail correct tuner
chordsukulelecavacokeyboardtabbassdrumsharmonicaflute Guitar Pro
close

there isn't a video lesson for this song

chords

Fonzie

Key:  A More
Fonzie Key EE
Fonzie Key FF
Fonzie Key F#F#
Fonzie Key GG(one step down)
Fonzie Key G#G#(half step down)
Fonzie Key AA(original key)
Fonzie Key A#A#(half step up)
Fonzie Key BB(one step up)
Fonzie Key CC
Fonzie Key C#C#
Fonzie Key DD
Fonzie Key D#D#
	  		



0:00 Bass riff 

g-----------------------|----------------------------| 
d-----------------------|----------------------------| 
a---------1----------0--|-------------1-0---0--------| 
d--2-2--2---2-5--2-5----|--2-2--2-5-2-----5---0-1-2--| 
                      x3 



0:13 Riff A 
e-----------------------|-----------------------| 
b-----------------------|-----------------------| 
g--9----9-7--9----9-12--|--9----9-7--9----9-15--| 
d----9---------9--------|----9---------9--------| 
a-----------------------|-----------------------| 
d-----------------------|-----------------------| 



0:26 Riff B 
e------------------------|----------------------------| 
b------------------------|----------------------------| 
g------------------------|----------------------------| 
d--2-2--2-8-2-5--2-5--7--|--2-2--2-5-2-8-7-5-7-0-1-2--| 
a--2-2--2-8-2-5--2-5--7--|--2-2--2-5-2-8-7-5-7-0-1-2--| 
d--2-2--2-8-2-5--2-5--7--|--2-2--2-5-2-8-7-5-7-0-1-2--| 
                       x3  



0:40 Riff A + B 



0:52 Riff C 
e-------------------|-------------------| 
b-------------------|-------------------| 
g-------------------|-------------------| 
d--2-2-2-2-2-2-2-2--|--2-2-2-2-2-2-2-2--| 
a--2-2-2-2-2-2-2-2--|--2-2-2-2-2-2-2-2--| 
d--2-2-2-2-2-2-2-2--|--2-2-2-2-2-2-2-2--| 

e-------------------|-------------------| 
b-------------------|-------------------| 
g-------------------|-------------------| 
d--5-5-5-5-5-5-5-5--|--4-4-4-4-4-4-4-4--| 
a--5-5-5-5-5-5-5-5--|--4-4-4-4-4-4-4-4--| 
d--5-5-5-5-5-5-5-5--|--4-4-4-4-4-4-4-4--| 

e-------------------|-----------------------| 
b-------------------|-----------------------| 
g-------------------|-----------------------| 
d--3-3-3-3-3-3-3-3--|--10-10-10-10-6-6-6-6--| 
a--3-3-3-3-3-3-3-3--|--10-10-10-10-6-6-6-6--| 
d--3-3-3-3-3-3-3-3--|--10-10-10-10-6-6-6-6--| 

e-------------------|-------------------| 
b-------------------|-------------------| 
g-------------------|-------------------| 
d--7-7-7-7-7-7-7-7--|--5-5-5-5-5-5-5-5--| 
a--7-7-7-7-7-7-7-7--|--5-5-5-5-5-5-5-5--| 
d--7-7-7-7-7-7-7-7--|--5-5-5-5-5-5-5-5--| 

e-------------------|-----| 
b-------------------|-----| 
g-------------------|-----| 
d--4-4-4-4-4-4-4-4--|--3--| 
a--4-4-4-4-4-4-4-4--|--3--| 
d--4-4-4-4-4-4-4-4--|--3--| 



1:11 Riff A + B 

1:24 Riff A 

1:36 Riff A + B 

1:50 Pause 

1:53 Riff C 



2:12 Solo 

e------------------------|--------------------------| 
b------------------------|--------------11----------| 
g---------9-----------9--|-------9-12-9----9-12-14--| 
d--2-2--9---9-12-9-12----|--2-2---------------------| 
a--2-2-------------------|--2-2---------------------| 
d--2-2-------------------|--2-2---------------------| 


e---------------------------|----------------------------------| 
b---------------------------|--------------11b-----------------| 
g-------9-12-9-12--9-12-14--|-------9-12-9-----12-14-----------| 
d--2-2----------------------|--2-2-------------------12-13-14--| 
a--2-2----------------------|--2-2-----------------------------| 
d--2-2----------------------|--2-2-----------------------------| 



2:23 Riff B + second guitar of the solo 



2:51 Outro 
e---------------|-----| 
b---------------|-----| 
g---------------|-----| 
d--8-7-5-7-0-1--|--2--| 
a--8-7-5-7-0-1--|--2--| 
d--8-7-5-7-0-1--|--2--| 
              x3 
		  

Full key step upFull key step up
Half key step upHalf key step up
Half key step downHalf key step down
Full key step downFull key step down
hide glossary

See also:

tabs Ira! - Dias de Luta (Intro - Acustico Mtv) tabs Deep Purple - Deep Purple - Smoke On The Water tabs Deep Purple - Demon's Eye tabs Ira! - Inundação de Amor tabs Deep Purple - Smoke on the Water (solo) tabs Deep Purple - Black Knight
e-chords

Other versions:

tabs Hollywood Porn Stars - Fonzie
auto scroll beats size up size down change color hide chords drawings
tab show chords e-chords YouTube Clip e-chords hide all tabs e-chords go to top tab

share