Hiss

Riverbed

Hiss

tabs

by  CARLLUZ

save to print version add songbook text version e-mail correct tuner
chordsukulelecavacokeyboardtabbassdrumsharmonicaflute Guitar Pro
close

there isn't a video lesson for this song

chords

Riverbed

	  		(intro) 

|----------------------- 
|----------------------- 
|----------------------- 
|-9-9-9-9-8-9-9-8-9-9-9- 
|-7-7-7-7-7-7-7-7-7-7-7- 
|----------------------- 

(verso) 
|-----------------------------|------------------------------------- 
|-----------------------------|------------------------------------- 
|--------9-9-9-9-9-9-9-9------|-9--------12--11---9-------12--14--9- 
|--5--7--9-9-9-9-9-9-9-9-5--7-|-x--------x---x----x-------x---x---x- 
|--5--7--7-7-7-7-7-7-7-7-5--7-|-7--------10--9----7-------10--12--7- 
|--3--5------------------3--5-|------------------------------------- 

|------|----------------------------------------------------------------- 
|------|----------------------------------------------------------------- 
|------|-------------------------7-7-7-7-9-9-9-9-9-9-9-9-9-9-9-9-9-9-9-9- 
|-5--7-|-9-9-9-9-9-9-9-9-7-7-7-7-7-7-7-7-9-9-9-9-9-9-9-9-9-9-9-9-9-9-9-9- 
|-5--7-|-9-9-9-9-9-9-9-9-7-7-7-7-5-5-5-5-7-7-7-7-7-7-7-7-7-7-7-7-7-7-7-7- 
|-3--5-|-7-7-7-7-7-7-7-7-5-5-5-5----------------------------------------- 

(Refrão) 
|--------------------------------------- 
|--------------------------------------- 
|-9-9-9-9-9-9-7-7-7--14-14-14-14-14-14-- 
|-x-x-x-x-x-x-x-x-x--x--x--x--x--x--x--- 
|-7-7-7-7-7-7-5-5-5--12-12-12-12-12-12-- 
|--------------------------------------- 
		  

See also:

tabs David Aguilar - Eco tabs Misc Computer Games - The Witcher 3 Ost - Lullaby Of Woe A Night To Remember Song (acoustic) tabs Misc Computer Games - Damned Black Ops Zombies Menu Music tabs Misc Computer Games - Undertale - His Theme tabs Misc Television - Gravity Falls Theme tabs Misc Computer Games - Far Cry 5 - We Will Rise Again
e-chords

Other versions:

tabs Hiss - Riverbed
auto scroll beats size up size down change color hide chords drawings
tab show chords e-chords YouTube Clip e-chords hide all tabs e-chords go to top tab

share