Hippo Campus

Traveler

Hippo Campus

tabs

by  ROBEPOIEL

save to print version add songbook text version e-mail correct tuner
chordsukulelecavacokeyboardtabbassdrumsharmonicaflute Guitar Pro
close

there isn't a video lesson for this song

chords

Traveler

	  		
Intro: 

 (Stitches pt.) 
C         t      t      t     t      t 
e|----------------------|-------------------| 
B|------------------12h-|-15----------------| 
G|-----------12h-14-----|-12h-14------------| 
D|----12h-14------------|--------12h-14-----| X2 
A|-10h------------------|-------------------| 
E|----------------------|-------------------| 

G      t     t       t     t      t  
e|---------------------|-------------------| 
B|-----------------10h-|-12----------------| 
G|----------9h-12------|--9h-12------------| 
D|---10h-12------------|--------10h-12-----| X2 
A|---------------------|-------------------| 
E|-8h------------------|-------------------| 

C          t       t       t     t       t     
e|------------------------|-15-----15-----15---| 
B|--------------------12h-|-15-12h-15-12h-15---| 
G|------------12h-14------|--------------------| 
D|----12h-14--------------|--------------------| 
A|-10h--------------------|--------------------| 
E|------------------------|--------------------| 

note: In the song the notes sound like sets of 3; turtan is plaing G and C bafore stitches sets of 2 . 

********************************************** 

| t tapping 
| h hammer on  

******************************************** 
		  

Full key step upFull key step up
Half key step upHalf key step up
Half key step downHalf key step down
Full key step downFull key step down
hide glossary

See also:

tabs Deep Purple - Demonds Eye tabs Deep Purple - Money Talks tabs Ira! - Eu Quero Sempre Mais (Com Pitty, intro) tabs Albert Hammond Jr - Holiday tabs Deep Purple - Smoke on the water (intro) tabs Deep Purple - Smoke on the Water (ver. 2)
e-chords

Other versions:

tabs Jason Mraz - Traveler tabs Hippo Campus - Traveler tabs Future Of Forestry - Travelers Song
auto scroll beats size up size down change color hide chords drawings
tab show chords e-chords YouTube Clip e-chords hide all tabs e-chords go to top tab

share