Hinos

home > Hinos

Hino do Flamengo (Solinho) Tab

Hinos

Difficulty: BeginnerBeginner

by rordaque

tuner correct add songbook print version text version save to e-mail
chordsukulelecavacokeyboardtabbassdrumsharmonicsflute Guitar Pro
chords

Hino do Flamengo (Solinho)

  		Solinho bem simples das seguintes partes do Hino do Mengão!!!  
  
Uma vez Flamengo       
Sempre Flamengo  
Flamengo sempre eu hei de se  
É o meu maior prazer  
  
E--12-12-13-12-15----12-15-12------------------15/17--13-----15--| 
B-----------------15----------15-13---13-15-13-------------------| 
G----------------------------------------------------------------|  
D----------------------------------------------------------------|  
A----------------------------------------------------------------|  
E----------------------------------------------------------------|  
  
Ve-lo brilha  
Seja na terra  
Seja no mar  
Uma vez Flamengo  
Flamengo até morrer  
  
  
E--17/20--17--------------15/17--13--17/20--19-------19------  
B------------20--13-15-13----------------------20-17---------  
G------------------------------------------------------------  
D------------------------------------------------------------  
A------------------------------------------------------------  
E------------------------------------------------------------  
  
  
  
E--17-------17--15-------17---12-12-13-12-15----13-13-12-15-12------  
B-----18-15--------17------------------------15----------------13---  
G---------------------17--------------------------------------------  
D-------------------------------------------------------------------  
A-------------------------------------------------------------------  
E-------------------------------------------------------------------  


	  

Search Paypal
auto scroll beats size up size down change color hide chords drawings
tab show chords e-chords YouTube Clip e-chords hide all tabs e-chords go to top tab