Hinos de Futebol

Hino Sociedade Esportiva E Recreativa Caxias Do Sul

Hinos de Futebol

tabs

by  RUNK

save to print version add songbook text version e-mail correct tuner
chordsukulelecavacokeyboardtabbassdrumsharmonicaflute Guitar Pro
close

there isn't a video lesson for this song

chords

Hino Sociedade Esportiva E Recreativa Caxias Do Sul

	  		
		 
Intro 


E|--------------------------------------------------------| 
B|--------------------------4-----4-6---4-6-8-6-4---------| 
G|--0-0-5---4-5-7---5-7-----7--------------------7-5-4-5~~| 
D|--------------------------------------------------------| 
A|--------------------------------------------------------| 
E|--------------------------------------------------------| 


Refrão 2x: 


E|----------------------------------------------------------| 
B|----------------------------------------------------------| 
G|--0-0-5--4-5-7--5-7-8-5--8-7----7-5----5-4----------------| 
D|--------------------------------------8-------6------5----| 
A|----------------------------------------------------------| 
E|----------------------------------------------------------| 



E|-------------------------------------------------------------------| 
B|----------------------------4-----4-6---4-6-8-6-4------------------| 
G|--0-0-5---4-5-7---5-7-----7--------------------7-5-4-5~~-----------| 
D|-------------------------------------------------------------------| 
A|-------------------------------------------------------------------| 
E|-------------------------------------------------------------------| 


Ponte: 


E|-------------------------------| 
B|-------------------------------| 
G|--------------------------5~~--| 
D|---5-6-5------------55---------| 
A|-----------8-6-5-3-------------| 
E|-------------------------------| 


Verso 3x: 


E|------------------------------------------------------------------| 
B|------------------------------------------------------------------| 
G|-------------------------------------5-5-5--------------5---------| 
D|---5-5-5--------------6-5-----------------8-6-6-5-----------------| 
A|-----------8-6-5-------------------------------------8------------| 
E|-------------------8-7--------------------------------------------| 



E|---------------------------------------------------------------| 
B|---------------------------------------------------------------| 
G|----8-8-8-7-5-5-4-5-7------------------------------------------| 
D|----------------------------5---5-6-5--5-----------------------| 
A|-----------------------------------------8---5-5-8-6-5---------| 
E|----------------------------------------------------------8~~--| 


(Refrão 1x) 
		  

auto scroll beats size up size down change color hide chords drawings
tab show chords e-chords YouTube Clip e-chords hide all tabs e-chords go to top tab

share