Hinário Adventista

Vinde Povo Do Senhor Tab

Hinário Adventista

Difficulty: nolevelnolevel

by HELON

tuner correct add songbook print version text version save to e-mail
chordsukulelecavacokeyboardtabbassdrumsharmonicsflute Guitar Pro
close

there isn't a video lesson for this song

chords

Vinde Povo Do Senhor

  		



1   |   |   |   |   |   |   |   |  |   |   |   |   |   |   |   |  |   |   |   |   
E |-5----5--8---5-|---------5----|-5----5--8---5-|---------5----|-5----5--6---6-| 
B |---------------|-6---8--------|---------------|-6---8--------|---------------| 
G |---------------|--------------|---------------|--------------|---------------| 
D |---------------|--------------|---------------|--------------|---------------| 
A |---------------|--------------|---------------|--------------|---------------| 
E |---------------|--------------|---------------|--------------|---------------| 



6   |   |   |   |  |   |   |   |   |   |   |   |  |   |   |   |   |   |   |   |  
E |---------5----|-5---7---8-----|--------------|---------------|---------5----| 
B |-8----8-------|-------------6-|-5------------|-5----5--8---5-|-6---8--------| 
G |--------------|---------------|-----7---5----|---------------|--------------| 
D |--------------|---------------|--------------|---------------|--------------| 
A |--------------|---------------|--------------|---------------|--------------| 
E |--------------|---------------|--------------|---------------|--------------| 



11  |   |   |   |   |   |   |   |  |   |   |   |   |   |   |   |  |   |   |   |    
E |-5----5--8---5-|-6---8---10---|-10---10-------|-8----8-------|-----10---------| 
B |---------------|--------------|---------11--8-|---------10---|-11------13-----| 
G |---------------|--------------|---------------|--------------|-------------10-| 
D |---------------|--------------|---------------|--------------|----------------| 
A |---------------|--------------|---------------|--------------|----------------| 
E |---------------|--------------|---------------|--------------|----------------| 



16  |   |   |   |  
E |--------------| 
B |-10-----------| 
G |-----12--10---| 
D |--------------| 
A |--------------| 
E |--------------| 
	  

auto scroll beats size up size down change color hide chords drawings
tab show chords e-chords YouTube Clip e-chords hide all tabs e-chords go to top tab

share with facebook

Search Paypal