Hinário Adventista

home > Hinário Adventista

Prece Ao Trino Deus Tab

Hinário Adventista

Difficulty: nolevelnolevel

by HELON

tuner correct add songbook print version text version save to e-mail
chordsukulelecavacokeyboardtabbassdrumsharmonicsflute Guitar Pro
chords

Prece Ao Trino Deus

(Hinário Adventista)

  		


1   |   |   |   |   |   |   |   |   |  |   |   |   |   |   |   |   |   |  
E |-8---5-----|-----------|----------|---------5-|-6-8-6---5-|----------| 
B |---------6-|-8---6---5-|-6--------|-6---8-----|-----------|-8--------| 
G |-----------|-----------|----------|-----------|-----------|----------| 
D |-----------|-----------|----------|-----------|-----------|----------| 
A |-----------|-----------|----------|-----------|-----------|----------| 
E |-----------|-----------|----------|-----------|-----------|----------| 



7   |   |   |   |   |   |  |   |   |   |   |   |   |   |   |   |   |   |   
E |-8---5-----|----------|-----5---6-|-5---------|-----5---6-|-5---------| 
B |---------6-|----------|-8---------|------8--6-|-8---------|------8--6-| 
G |-----------|-5--------|-----------|-----------|-----------|-----------| 
D |-----------|----------|-----------|-----------|-----------|-----------| 
A |-----------|----------|-----------|-----------|-----------|-----------| 
E |-----------|----------|-----------|-----------|-----------|-----------| 



13  |   |   |   |   |   |   |   |   |   |   |   |  
E |-----5---8-|-8----10-8-|-6---5---3-|----------| 
B |-6---------|-----------|-----------|----------| 
G |-----------|-----------|-----------|-10-------| 
D |-----------|-----------|-----------|----------| 
A |-----------|-----------|-----------|----------| 
E |-----------|-----------|-----------|----------| 
	  

Search Paypal
auto scroll beats size up size down change color hide chords drawings
tab show chords e-chords YouTube Clip e-chords hide all tabs e-chords go to top tab