Hinário Adventista

home > Hinário Adventista

Por Belezas Naturais Tab

Hinário Adventista

Difficulty: nolevelnolevel

by HELON

tuner correct add songbook print version text version save to e-mail
chordsukulelecavacokeyboardtabbassdrumsharmonicsflute Guitar Pro
chords

Por Belezas Naturais

(Hinário Adventista)

  		




1   |   |   |   |   |   |   |   |  |   |   |   |   |   |   |   |  |   |   |   |   
E |-3---2-3-5---3-|-8---8---7----|-0-----------0-|--------------|-3---2-3-5---3-| 
B |---------------|--------------|-----7---8-----|-3---3---3----|---------------| 
G |---------------|--------------|---------------|--------------|---------------| 
D |---------------|--------------|---------------|--------------|---------------| 
A |---------------|--------------|---------------|--------------|---------------| 
E |---------------|--------------|---------------|--------------|---------------| 



6   |   |   |   |  |   |   |   |   |   |   |   |  |   |   |   |   |   |   |   |  
E |-8---8---7----|-0-----------0-|--------------|-7-----------7-|-10---8--7----| 
B |--------------|-----7---8-----|--------------|-----10--8-----|--------------| 
G |--------------|---------------|-7---7---7----|---------------|--------------| 
D |--------------|---------------|--------------|---------------|--------------| 
A |--------------|---------------|--------------|---------------|--------------| 
E |--------------|---------------|--------------|---------------|--------------| 



11  |   |   |   |   |   |   |   |  
E |-------------8-|-7------------| 
B |-----7---8-----|-----10-------| 
G |-9-------------|---------12---| 
D |---------------|--------------| 
A |---------------|--------------| 
E |---------------|--------------| 
	  

Search Paypal
auto scroll beats size up size down change color hide chords drawings
tab show chords e-chords YouTube Clip e-chords hide all tabs e-chords go to top tab