Hinário Adventista

home > Hinário Adventista

O Deus Eterno Reina Tab

Hinário Adventista

Difficulty: nolevelnolevel

by HELON

tuner correct add songbook print version text version save to e-mail
chordsukulelecavacokeyboardtabbassdrumsharmonicsflute Guitar Pro
chords

O Deus Eterno Reina

(Hinário Adventista)

  		


1   |   |   |   |   |   |   |   |   |   |   |   |   |   |   |   |    
E |-------------5-|-2-------------|-------------2-|-----10--9------| 
B |---------------|-----3---5---2-|-3-------3-----|-10----------11-| 
G |---------------|---------------|---------------|----------------| 
D |---------------|---------------|---------------|----------------| 
A |---------------|---------------|---------------|----------------| 
E |---------------|---------------|---------------|----------------| 



5   |   |   |   |    |   |   |   |    |   |   |   |   |   |   |   |    
E |----------------|-10------9------|------3--2---2-|-----5---7----5-| 
B |-12----------10-|-----10------12-|-10------------|-5--------------| 
G |----------------|----------------|---------------|----------------| 
D |----------------|----------------|---------------|----------------| 
A |----------------|----------------|---------------|----------------| 
E |----------------|----------------|---------------|----------------| 



9   |   |   |   |   |   |   |   |    |   |   |   |   |   |   |   |   
E |-5-----------5-|-9----9---------|-10------2-----|-----2---3---4-| 
B |---------------|---------12--10-|-----10------3-|-5-------------| 
G |---------------|----------------|---------------|---------------| 
D |---------------|----------------|---------------|---------------| 
A |---------------|----------------|---------------|---------------| 
E |---------------|----------------|---------------|---------------| 



13  |   |   |   |    |   |   |   |   |   |   |   |   |   |   |   |    
E |-5---7---9------|-10------9---7-|-5---5---5---3-|-2---2---2----0-| 
B |-------------10-|-----10--------|---------------|----------------| 
G |----------------|---------------|---------------|----------------| 
D |----------------|---------------|---------------|----------------| 
A |----------------|---------------|---------------|----------------| 
E |----------------|---------------|---------------|----------------| 



17  |   |   |   |  
E |--------------| 
B |--------------| 
G |--------------| 
D |-12-----------| 
A |--------------| 
E |--------------| 
	  

Search Paypal
auto scroll beats size up size down change color hide chords drawings
tab show chords e-chords YouTube Clip e-chords hide all tabs e-chords go to top tab