Hinário Adventista

home > Hinário Adventista

Ó Adorai O Senhor Tab

Hinário Adventista

Difficulty: nolevelnolevel

by HELON

tuner correct add songbook print version text version save to e-mail
chordsukulelecavacokeyboardtabbassdrumsharmonicsflute Guitar Pro
chords

Ó Adorai O Senhor

  		
  


1   |   |   |   |   |   |     |   |   |   |   |   |  |   |   |   |   |   |   
E |-3---3---5-|-3-----------|-0---0-----|-0-1-3----|-5---5---5-|-3---3---0-| 
B |-----------|-----------3-|---------3-|----------|-----------|-----------| 
G |-----------|---------5---|-----------|----------|-----------|-----------| 
D |-----------|-------------|-----------|----------|-----------|-----------| 
A |-----------|-------------|-----------|----------|-----------|-----------| 
E |-----------|-------------|-----------|----------|-----------|-----------| 



7   |   |   |   |   |   |  |   |   |   |   |   |   |   |   |   |   |   |  
E |-0---0-----|----------|-0---0---0-|-0---3---3-|-5---3---0-|-0--------| 
B |---------7-|-8--------|-----------|---6-------|-----------|----------| 
G |-----------|----------|-----------|-----------|-----------|---7-7----| 
D |-----------|----------|-----------|-----------|-----------|----------| 
A |-----------|----------|-----------|-----------|-----------|----------| 
E |-----------|----------|-----------|-----------|-----------|----------| 



13  |   |   |   |   |   |    |   |   |    |   |   |  
E |-8---8---8-|-8----------|-0---0------|----------| 
B |-----------|-----8------|------------|----------| 
G |-----------|------------|------------|----------| 
D |-----------|---------10-|---------12-|-10-------| 
A |-----------|------------|------------|----------| 
E |-----------|------------|------------|----------| 
	  

Search Paypal
auto scroll beats size up size down change color hide chords drawings
tab show chords e-chords YouTube Clip e-chords hide all tabs e-chords go to top tab