Hinário Adventista

home > Hinário Adventista

Luzes Da Aurora Tab

Hinário Adventista

Difficulty: nolevelnolevel

by HELON

tuner correct add songbook print version text version save to e-mail
chordsukulelecavacokeyboardtabbassdrumsharmonicsflute Guitar Pro
chords

Luzes Da Aurora

(Hinário Adventista)

  		


1   |   |   |   |   |   |  |   |   |   |   |   |  |   |   |   |   |   |  
E |-4---1---2-|-4-3-4----|-6---1---4-|-2--------|-2-------1-|-2-1-2----| 
B |-----------|----------|-----------|----------|-----4-----|----------| 
G |-----------|----------|-----------|----------|-----------|----------| 
D |-----------|----------|-----------|----------|-----------|----------| 
A |-----------|----------|-----------|----------|-----------|----------| 
E |-----------|----------|-----------|----------|-----------|----------| 



7   |   |   |   |   |   |  |   |   |   |   |   |  |   |   |    |   |   |  
E |-4-------2-|-1--------|-4---1---2-|----------|-9---8------|----------| 
B |-----4-----|----------|-----------|-9-8-9----|---------11-|-9--------| 
G |-----------|----------|-----------|----------|---------11-|----------| 
D |-----------|----------|-----------|----------|------------|----------| 
A |-----------|----------|-----------|----------|------------|----------| 
E |-----------|----------|-----------|----------|------------|----------| 



13  |   |   |   |   |   |  |   |   |    |   |   |  
E |-----8---9-|-9--------|------------|----------| 
B |-11--------|---9-9----|------------|----------| 
G |-----------|----------|-10--11-----|----------| 
D |-----------|----------|---------13-|-11-------| 
A |-----------|----------|------------|----------| 
E |-----------|----------|------------|----------| 
	  

Search Paypal
auto scroll beats size up size down change color hide chords drawings
tab show chords e-chords YouTube Clip e-chords hide all tabs e-chords go to top tab