Hinário Adventista

home > Hinário Adventista

Louvamos - Te Ó Deus Tab

Hinário Adventista

Difficulty: nolevelnolevel

by HELON

tuner correct add songbook print version text version save to e-mail
chordsukulelecavacokeyboardtabbassdrumsharmonicsflute Guitar Pro
chords

Louvamos - Te Ó Deus

  		



1   |   |   |   |   |   |   |   |   |     |   |   |   |   |   |     |   |   |   
E |-----------|-----------|-------------|-3---3---3-|-3---------3-|-6---6---6-| 
B |-----------|-4---4---4-|-4-------4-6-|-----------|---------4---|-----------| 
G |---------3-|-----------|-------------|-----------|-------------|-----------| 
D |-----------|-----------|-------------|-----------|-------------|-----------| 
A |-----------|-----------|-------------|-----------|-------------|-----------| 
E |-----------|-----------|-------------|-----------|-------------|-----------| 



7   |   |   |   |   |   |   |   |   |     |   |   |     |   |   |     |   |   |   
E |-8---6-----|-----------|---------6-6-|-8---6-------|---------6-6-|-8---6-----| 
B |---------8-|-8---6---6-|-6-----------|---------8-6-|-------------|---------8-| 
G |-----------|-----------|-------------|-------------|-8---8-------|-----------| 
D |-----------|-----------|-------------|-------------|-------------|-----------| 
A |-----------|-----------|-------------|-------------|-------------|-----------| 
E |-----------|-----------|-------------|-------------|-------------|-----------| 



13  |   |   |     |   |   |     |   |   |     |   |   |   |   |   |  
E |---------6-6-|-8---6---3---|---------3-3-|-4---3-----|----------| 
B |-6-----------|-----------6-|-4---4-------|---------6-|----------| 
G |-------------|-------------|-------------|-----------|----------| 
D |-------------|-------------|-------------|-----------|-13-------| 
A |-------------|-------------|-------------|-----------|----------| 
E |-------------|-------------|-------------|-----------|----------| 
	  

Search Paypal
auto scroll beats size up size down change color hide chords drawings
tab show chords e-chords YouTube Clip e-chords hide all tabs e-chords go to top tab